Misc Christmas - O Christmas Tree Chords & Tabs

 

O Christmas Tree Chords & Tabs

Misc Christmas Chords & Tabs

Version: 1 Type: Tab 0 ratings
1 star 2 stars 3 stars 4 stars 5 stars
comments

O Christmas Tree Tab

   
O CHRISTMAS TREE


By:Tom Rosso
E-mail:BillsFan929@aol.com

Here's a really simple straightforward version of "O Christmas Tree".
I know it's easy. That's the idea.  So if you want to make it a little more
complicated I gave you the chords and stuff so have a ball.

         C                                               D7
e|------|-----------------------|-----------------------|--------------------|
B|------|-----------------------|-----------------------|--------------------|
G|------|-----------------------|-----------------------|--------------------|
D|------|---5----5---5------7---|--9----9----9-------9--|--7--9--------------|
A|--5---|-----------------------|-----------------------|--------------------|
E|------|-----------------------|-----------------------|--------------------|
    O    Christ-mas Tree    o    Christ-mas Tree    how  love-ly

e|-------------|-------------------------------------------------------------|
B|-------------|-------------------------------------------------------------|
G|-------------|-------------------------------------------------------------|
D|--10---------|--7----5-----------------------------------------------------|
A|--------8----|-------------------------------------------------------------|
E|-------------|-------------------------------------------------------------|
   Are   your   branch-es  (x2)
[ Tab from: http://www.guitartabs.cc/tabs/m/misc_christmas/o_christmas_tree_tab.html ]
           C                   D7
e|-------|-------------------|--------------------------|--------------------|
B|-------|-------------------|--------------------------|--------------------|
G|---7---|----7-------9----7-|--7----5-----5---------5--|--5-------7---------|
D|-------|--------9----------|--------------------------|------7-------------|
A|-------|-------------------|--------------------------|--------------------|
E|-------|-------------------|--------------------------|--------------------|
    Your    shin-ing star and twink-ling lights     They gent-ly glow 
            
           G
e|--------|------------------------------------------------------------------|
B|--------|------------------------------------------------------------------|
G|---5----|-5---3----3-------------------------------------------------------|
D|--------|------------------------------------------------------------------|
A|--------|------------------------------------------------------------------|
E|--------|------------------------------------------------------------------|
   Through-out the night

         C                                               D7
e|------|-----------------------|-----------------------|--------------------|
B|------|-----------------------|-----------------------|--------------------|
G|------|-----------------------|-----------------------|--------------------|
D|------|---5----5---5------7---|--9----9----9-------9--|--7--9--------------|
A|--5---|-----------------------|-----------------------|--------------------|
E|------|-----------------------|-----------------------|--------------------|
    O    Christ-mas Tree    o    Christ-mas Tree    how  love-ly

e|-------------|-------------------------------------------------------------|
B|-------------|-------------------------------------------------------------|
G|-------------|-------------------------------------------------------------|
D|--10---------|--7----5-----------------------------------------------------|
A|--------8----|-------------------------------------------------------------|
E|-------------|-------------------------------------------------------------|
   Are   your   branch-es
Comments