Misc Christmas - Little Drummer Boy Chords & Tabs

 

Little Drummer Boy Chords & Tabs

Misc Christmas Chords & Tabs

Version: 3 Type: Tab

Little Drummer Boy Tab

----------------------------------------------------------------------------
--		Little Drummer Boy - Misc Christmas                       
------------------------------------------------------------------------------

Tabbed by:mccabe24
Tuning: EADGBE

e|----------------|----------------|----------------|
B|----------------|0---0---0---0---|1-0-1---0-------|
G|0----------2----|----------------|----------------|
D|----------------|0-------0-------|0-------0-------|
A|----------------|----------------|----------------|
E|3---------------|----------------|----------------|

e|----------------|----------------|----------------|
B|----------------|0---0---0---0---|1-0-1---0-------|
G|0-----0----2----|----------------|----------------|
D|----------------|0-------0-------|0-------0-------|
A|----------------|----------------|----------------|
E|3-----3---------|----------------|----------------|

e|----------------|---------0------|----------------|
B|----0---1---3---|3---3-----------|3-1-0-----------|
G|2-----------0---|----------------|--------2-------|
D|0---------------|---------2------|----------------|
A|----------------|----------------|----------------|
E|----------------|----------------|----------------|
[ Tab from: http://www.guitartabs.cc/tabs/m/misc_christmas/little_drummer_boy_tab_ver_3.html ]
e|----------------|---------0------|----------------|
B|----0---1---3---|3---3-----------|3-1-0-----------|
G|2-----------0---|----------------|--------2-------|
D|0---------------|---------2------|----------------|
A|----------------|----------------|----------------|
E|----------------|----------------|----------------|

e|----------------|----------------|----------------|
B|1-0-------------|0---------------|----------------|
G|----2---0-------|--2-0-----------|2-0-------------|
D|----------------|--------4-------|----4---2-------|
A|----------------|----------------|--------0-------|
E|----------------|----------------|----------------|

e|----------------|----------------|----------------|
B|----------------|0---0---0---0---|1-0-1---0-------|
G|0----------2----|----------------|----------------|
D|----------------|0-------0-------|0-------0-------|
A|----------------|----------------|----------------|
E|3---------------|----------------|----------------|

e|----------------|3---------------|----------------|
B|----------------|----------------|----------------|
G|2---0---2-------|0---------------|----------------|
D|0-------0-------|----------------|----------------|
A|----------------|----------------|----------------|
E|----------------|3---------------|----------------|

============================================================================