Misc Christmas - Joy To The World Chords & Tabs

 

Joy To The World Chords & Tabs

Misc Christmas Chords & Tabs

Version: 3 Type: Tab

Joy To The World Tab

Merry Christmas!
e|--13-12------------------------------------------13--|
B|--------15-13----11-10---------13--15-15--17-17------|
G|-----------------------12-10-------------------------|
D|-----------------------------------------------------|
A|-----------------------------------------------------|
E|-----------------------------------------------------|
[ Tab from: http://www.guitartabs.cc/tabs/m/misc_christmas/joy_to_the_world_tab_ver_3.html ]
e|--13-13--------------------13-13---------------------|
G|--------17-17-15-15-13-13--------17-17-15-15-13-13---|
B|-----------------------------------------------------|
D|-----------------------------------------------------|
A|-----------------------------------------------------|
E|-----------------------------------------------------|

e|-----------------------------------------------------|
G|--10-10--11-11--13-13---10-10--11-11--13-13----------|
B|-----------------------------------------------------|
D|-----------------------------------------------------|
A|-----------------------------------------------------|
E|-----------------------------------------------------|

e|----------13--10---------------------13--------------|
G|--13--10---------13--11--10--------------------------|
B|-----------------------------12--10------------------|
D|-----------------------------------------------------|
A|-----------------------------------------------------|
E|-----------------------------------------------------|