Misc Christmas - Joy To The World Chords & Tabs

 

Joy To The World Chords & Tabs

Misc Christmas Chords & Tabs

Version: 1 Type: Tab 3 ratings
1 star 2 stars 3 stars 4 stars 5 stars
comments

Joy To The World Tab

Misc. Christmas - Joy To The World

This is my frist tab, So if you can finish
this please let me know!

sabean@gmail.com

Played in C I presume, I figured it out
while I was playing scales :)

E|----------------------------------------------------|
B|----1--0-------------------------------------------|
G|---------2-0------------------0-2---2-4---4-5---|
D|---------------3--2---0---------------------------|
A|-------------------------3-------------------------|
E|----------------------------------------------------|
[ Tab from: http://www.guitartabs.cc/tabs/m/misc_christmas/joy_to_the_world_tab.html ]
E|--------------------------------------------------------------|
B|-------------------------------------------------------------|
G|----5--5p4p2--2p0--0--------5--5p4p2--2p0--0--------|
D|-------------------------2-2------------------------2-2----|
A|-------------------------------------------------------------|
E|-------------------------------------------------------------|

E|--------------------------------------------------------------------|
B|--------------------------------------------------------------------|
G|-----------------------0-------------------------------------------|
D|2--2--2--2--2--2--3--------2--0--0--0--0--0--2--3---2p0-----|
A|----------------------------------------------------------------3--|
E|--------------------------------------------------------------------|

Sorry, can't figure out the end :(
Comments