Misc Christmas - Jingle Bells Chords & Tabs

 

Jingle Bells Chords & Tabs

Misc Christmas Chords & Tabs

Version: 8 Type: Tab 0 ratings
1 star 2 stars 3 stars 4 stars 5 stars
comments

Jingle Bells Tab

Hey all. This song is in drop-d tuning and it is fucking bad ass.

e----------------------------------------------------------------|
b----------------------------------------------------------------|
g----------------------------------------------------------------|
d--4-4-4----4-4-4----4-7-0-2-4----5-5-5-5-5-4-4-4-4-4-2-2-2-4--7-|
a--4-4-4----4-4-4----4-7-0-2-4----5-5-5-5-5-4-4-4-4-4-2-2-2-4--7-|
D--4-4-4----4-4-4----4-7-0-2-4----5-5-5-5-5-4-4-4-4-4-2-2-2-4--7-|

The rhythm guitarist keeps playing this and here is the solo.
[ Tab from: http://www.guitartabs.cc/tabs/m/misc_christmas/jingle_bells_tab_ver_8.html ]
e--------------------------------------------------------------|
b--------------------------------------------------------------|
g----------------------2-------------------------------------2-|
d--4-4-4----4-4-4----4---0-2-4----5-5-5-5-5-4-4-4-4-4-2-2-2-4--|
a--------------------------------------------------------------|
D--------------------------------------------------------------|

e---------------------------------------------------------------------|
b---------------------------------------------------------------------|
g----------------------------14---------------------------------------|
d--16-16-16----16-16-16----16--12-14-16-17-17-17-17-17-16-16-16-16-16-|
a---------------------------------------------------------------------|
D---------------------------------------------------------------------|

e-----------------|
b-----------------|
g--------------14-|
d--14-14-14-16----|
a-----------------|
D-----------------|

And thats about it. email me with questions or comments - kornball99@hotmail.com
Comments