Misc Christmas - Jingle Bells Chords & Tabs

 

Jingle Bells Chords & Tabs

Misc Christmas Chords & Tabs

Version: 5 Type: Tab 0 ratings
1 star 2 stars 3 stars 4 stars 5 stars
comments

Jingle Bells Tab

e|--0-0-0-----0-0-0-----0-3-----0-|-1-1-1-1-1-0-0-0-0-----0
b|--------------------------1-3---|-------------------3-3--
g|--------------------------------|------------------------
d|--------------------------------|------------------------
a|--------------------------------|------------------------
E|--------------------------------|------------------------
[ Tab from: http://www.guitartabs.cc/tabs/m/misc_christmas/jingle_bells_tab_ver_5.html ]
e|--3--0-0-0----0-0-0----0-3-----0-|--1-1-1-1-1-0-0-0-3-3-1
b|3--------------------------1-3---|-----------------------
g|---------------------------------|
d|---------------------------------|
a|---------------------------------|
E|---------------------------------|

e|---------------------------------------------------------
b|3-1------------------------------------------------------
g|---------------------------------------------------------
d|---------------------------------------------------------
a|---------------------------------------------------------
E|---------------------------------------------------------
Comments