Misc Christmas - Jingle Bells Chords & Tabs

 

Jingle Bells Chords & Tabs

Misc Christmas Chords & Tabs

Version: 10 Type: Tab 0 ratings
1 star 2 stars 3 stars 4 stars 5 stars
comments

Jingle Bells Tab

   
   ________________
  /               /  Now this song is the best Christmas carol ever!
 / Jingle Bells  /   Happy Christmas!
/_______________/


  Part A
E||-2---2---2-------2---2---2-------|-2---5---------0-2---------------|
B||---------------------------------|---------3-----------------------|
G||---------------------------------|---------------------------------|
D||---------------------------------|---------------------------------|
A||---------------------------------|---------------------------------|
E||---------------------------------|---------------------------------|

  |-3---3---3-----3-3---2---2-----2-|-2---0---0---2---0-------5-------|
  |---------------------------------|---------------------------------|
  |---------------------------------|---------------------------------|
  |---------------------------------|---------------------------------|
  |---------------------------------|---------------------------------|
  |---------------------------------|---------------------------------|
[ Tab from: http://www.guitartabs.cc/tabs/m/misc_christmas/jingle_bells_tab_ver_10.html ]
  |-2---2---2-------2---2---2-------|-2---5---------0-2---------------|
  |---------------------------------|---------3-----------------------|
  |---------------------------------|---------------------------------|
  |---------------------------------|---------------------------------|
  |---------------------------------|---------------------------------|
  |---------------------------------|---------------------------------|

  |-3---3---3-----3-3---2---2-----2-|-5---5---3---0-------------------|
  |---------------------------------|-----------------3---------------|
  |---------------------------------|---------------------------------|
  |---------------------------------|---------------------------------|
  |---------------------------------|---------------------------------|
  |---------------------------------|---------------------------------|

  Part B
  |-----2---0-----------------------|-----2---0-----------------------|
  |-------------3-------------------|-------------3---0-------------0-|
  |-2---------------2-------------2-|-2-------------------------------|
  |---------------------------------|---------------------------------|
  |---------------------------------|---------------------------------|
  |---------------------------------|---------------------------------|

  |-----3---2---0---5---5---------5-|-7---7---2---0-------------------||
  |-0-------------------------------|-----------------3---------------||
  |---------------------------------|---------------------------------||
  |---------------------------------|---------------------------------||
  |---------------------------------|---------------------------------||
  |---------------------------------|---------------------------------||



Please e-mail me at Maitinin@gmail.com for comments or corrections!
Comments