Misc Christmas - Jingle Bells Chords & Tabs

 

Jingle Bells Chords & Tabs

Misc Christmas Chords & Tabs

Version: 3 Type: Bass Tab 0 ratings
1 star 2 stars 3 stars 4 stars 5 stars
comments

Jingle Bells Bass Tab

[-------------------------------------------------------------]
[---4-4-4--4-4-4--4-7-----4---5-5-5--55-4-4--4-4-----4----7---]
[---------------------5-7------------------------7-7---7------]
[-------------------------------------------------------------]
[ Tab from: http://www.guitartabs.cc/tabs/m/misc_christmas/jingle_bells_btab_ver_3.html ]
[-------------------------------------------------------------]
[---4-4-4--4-4-4--4-7-----4---5-5-5--55-4-4---4-7-7-5---------]
[---------------------5-7-----------------------------7-5-----]
[-------------------------------------------------------------]


[-------------------------------------------------]
[----4-------------4----------5--------7-7-5------]
[------7-5-----------7-5--------9-7----------7-9--]
[---7------5---55-7------7---7------9-------------]

[-------------------------------------------------------]
[----4-------------4----------5-----7-7-7--9-7--------7-]
[------7-5-----------7-5--------9-7------------9-7-5----]
[---7------5---55-7------7---7--------------------------]
Comments