Misc Christmas - Jingle Bells Acoustic Chords & Tabs

 

Jingle Bells Acoustic Chords & Tabs

Misc Christmas Chords & Tabs

Version: 1 Type: Tab 0 ratings
1 star 2 stars 3 stars 4 stars 5 stars
comments

Jingle Bells Acoustic Tab

Chorus:
E-5-5-5---5-5-5---5-8-1-3-5---6-6-6-6-6-5-5-5-5-5-3-3-5-3-8------------|
B----------------------------------------------------------------------|
G----------------------------------------------------------------------|
D----------------------------------------------------------------------|
A----------------------------------------------------------------------|
E----------------------------------------------------------------------|

E-5-5-5---5-5-5---5-8-1-3-5---6-6-6-6-6-5-5-5-5-5-8-8-5-3-1------------|
B----------------------------------------------------------------------|
G----------------------------------------------------------------------|
D----------------------------------------------------------------------|
A----------------------------------------------------------------------|
E----------------------------------------------------------------------|
[ Tab from: http://www.guitartabs.cc/tabs/m/misc_christmas/jingle_bells_acoustic_tab.html ]
Verse:
E-----5-3-1---------5-3-1-----6-5-3---8-8-6-3-5------------------------|
B-1-1-------1-1-1-1-------3-3-------5----------------------------------|
G----------------------------------------------------------------------|
D----------------------------------------------------------------------|
A----------------------------------------------------------------------|
E----------------------------------------------------------------------|

E-----5-3-1---------5-3-1-------6-5-3-8-8-8-8-10-8-6-3-1---8------------|(to chorus)
B-1-1-------1-1-1-1-------3-3-3-----------------------------------------|
G-----------------------------------------------------------------------|
D-----------------------------------------------------------------------|
A-----------------------------------------------------------------------|
E-----------------------------------------------------------------------|
Comments