Misc Christmas - Jingle Bell Rock Chords & Tabs

 

Jingle Bell Rock Chords & Tabs

Misc Christmas Chords & Tabs

Version: 1 Type: Tab 13 ratings
1 star 2 stars 3 stars 4 stars 5 stars
comments

Jingle Bell Rock Tab

ingle bell rock

sort of in a swing rhythm. This is my first tab so enjoy and happy holidays:)

~~=hold out note
e-----------------------------------------------------------------------------
B-7-7-7--7-7-7--7-10----7-------------------------------------------------
G-7-7-7--6-6-6-------7-9--9-7---------------------------------------------
D-------------------------------9-7------------------------------------------
A-----------------------------------------------------------------------------
E-------------------------------------0-7-5-4-2-----------------------------

e-----------------------------------------------------------------------------
B-----------------------------------------------------------------------------
G-----------------------------------------------------------------------------
D---0-0-0--------------------------------------------------------------------
A-----------4-4-4--2-4-2------2-4-2---0--2-4-2--------------------------
E-----------------------2-----------2-----------3-------------------------
[ Tab from: http://www.guitartabs.cc/tabs/m/misc_christmas/jingle_bell_rock_tab.html ]
e-----------------------------------------------------------------------------
B-----------------------------------------------------------------------------
G-----------------------------------------------------------------------------
D-----------------------------------------------------------------------------
A-----------0---------0---2--0-2-0------------------------------------------
E---0-2---3---0-2-3----------------2----------------------------------------

e-----------------------------------------------------------------------------
B-----------------------------------------------------------------------------
G-----------------------------------------------------------------------------
D---0-0-0------------------------------------------0--2-2-0-0-----0-2-----
A-----------4-4-4--2-4-2------2-4-2---0--2~~~~~~2-------------1-1--------
E-----------------------2-----------2-------------------------------------

e-----------------------------------------------------------------------------
B-----------------------------------------------------------------------------
G---------------2-----------------------------------------------------------
D---0----0-2-----5~~~~-----------------------------------------------------
A-------2---------------------------------------------------------------------
E------------------------------------------------------------------------------
Comments