Misc Christmas - Hark The Herald Angels Sing Chords & Tabs

 

Hark The Herald Angels Sing Chords & Tabs

Misc Christmas Chords & Tabs

Version: 4 Type: Tab 0 ratings
1 star 2 stars 3 stars 4 stars 5 stars
comments

Hark The Herald Angels Sing Tab

Here something I was just messing around with and learned how to play thought
I'd put it up. It's my first tab but it sounds acurate.

e-------------------------------------
b-------------------------------------
g---------------------7-7-7-----------
d---------------9-9-7-------10-9-7-9--
a----10-10-8-10-----------------------
E-10----------------------------------

e--------------------------------------
b--------------------------------------
g---------------------7----------------
d---------------9-9-7---7-7------------ 
a----10-10-8-10-------------8-8-7------
E-10------------------------------10---
[ Tab from: http://www.guitartabs.cc/tabs/m/misc_christmas/hark_the_herald_angels_sing_tab_ver_4.html ]
e--------------------------------------
b--------------------------------------
g-7-7-7-------------7-7-7--------------
d----------10-9-9-7----------10-9-9-7--
a-------10----------------10-----------
E--------------------------------------

e--------------------------------------
b--------------------------------------
g-7-7-7--------------------------------
d----------10-9-10-7-9-10-------7-9----
a-------10----------------10-10--------
E--------------------------------------

e--------------------------------------
b--------------------------------------
g-9-9-9-7------------------------------
d---------10-9-10-7-9-10-10-9-7-9------
a--------------------------------------
E--------------------------------------
Comments