Misc Christmas - Hark The Herald Angels Sing Chords & Tabs

 

Hark The Herald Angels Sing Chords & Tabs

Misc Christmas Chords & Tabs

Version: 2 Type: Tab 0 ratings
1 star 2 stars 3 stars 4 stars 5 stars
comments

Hark The Herald Angels Sing Tab

Song: Hark the herlad angels sing
Tabbed by: sspunky

Note: I tabbed the melody of the song...I'm not sure if it can be used for accompaniment.

Standard tuning, sounds best acoustic, add a few bends for electric guitar if you want.

e------------------------------------------------------------------
B---------------------------------11h12--12--12--10--9--7--7h9-----
G------8h9--9--8--9---13--13--11-----------------------------------
D---9--------------------------------------------------------------
A------------------------------------------------------------------
E------------------------------------------------------------------
   "Hark the herald angels sing, glory to the new born king."

e------------------------------------------------------------------
B------------------------------11h12-------------------------------
G-----8h9--9--8--9---13--13--11-------11--11--9--8--6--4-----------
D--9---------------------------------------------------------------
A------------------------------------------------------------------
E------------------------------------------------------------------
[ Tab from: http://www.guitartabs.cc/tabs/m/misc_christmas/hark_the_herald_angels_sing_tab_ver_2.html ]
e--------------------------------------
B--11h12--12--12----9h10--9--9---6h7---
G----------------9---------------------
D--------------------------------------  (2x)
A--------------------------------------
E--------------------------------------

e-----------------------------------------
B---14--14--14---11h12---9h10---9---9h10--
G-----------------------------------------
D-----------------------------------------
A-----------------------------------------
E-----------------------------------------
   "Hark, the herald angels sing,"

e-----------------------------------------
B--7--7h9---/10/12------------------------
G-------------------9--9--9h11---13-------
D-----------------------------------------
A-----------------------------------------
E-----------------------------------------
    "Christ is born in Bethlehem."

Repeat the above tab for the line "Hark the herald angels sing" then end on:

e------------------------------------
B---7--7h9--/10/12-------------------
G------------------9---9---9h11---9--
D------------------------------------
A------------------------------------
E------------------------------------

A late Happy Christmas to you all, and a happy new year.
Comments