Misc Christmas - Hark The Herald Angels Sing Chords & Tabs

 

Hark The Herald Angels Sing Chords & Tabs

Misc Christmas Chords & Tabs

Version: 1 Type: Bass Tab 0 ratings
1 star 2 stars 3 stars 4 stars 5 stars
comments

Hark The Herald Angels Sing Bass Tab

Song: Hark the Herald Angels Sing
Artist: Christmas
Album: Your Local Hymn Book
Tabbed by: Stephen Ricks


This can be played on either the top or the bottom two strings, your call.
I'm sure you can figure out the timing.  I'd be happy to improve it.
E-mail suggestions/corrections/improvements to slutpanda@hotmail.com

G:-------0---0-------0---4---4---2---|
D:---0-----------4-------------------|
A:-----------------------------------|
E:-----------------------------------|

G:---7---7---7---5---4---2---4---|
D:-------------------------------|
A:-------------------------------|
E:-------------------------------|

G:-------0---0-------0---4---4---2---|
D:---0-----------4-------------------|
A:-----------------------------------|
E:-----------------------------------|
[ Tab from: http://www.guitartabs.cc/tabs/m/misc_christmas/hark_the_herald_angels_sing_btab.html ]
G:---7---2---2---0---------------|
D:-------------------4---2---0---|
A:-------------------------------|
E:-------------------------------|

G:---7---7---7---0---5---4---4---2---|
D:-----------------------------------|
A:-----------------------------------|    X2
E:-----------------------------------|

G:---9---9---9---7---5---4---5---|
D:-------------------------------|
A:-------------------------------|
E:-------------------------------|

G:---2---4---5---7---0---0---2---4---|
D:-----------------------------------|
A:-----------------------------------|
E:-----------------------------------|

G:---9---9---9---7---5---4---5---|
D:-------------------------------|
A:-------------------------------|
E:-------------------------------|

G:---2---4---5---7---0---0---2---0---|
D:-----------------------------------|
A:-----------------------------------|
E:-----------------------------------|
Comments