Misc Christmas - Hark The Herald Angel Chords & Tabs

 

Hark The Herald Angel Chords & Tabs

Misc Christmas Chords & Tabs

Version: 1 Type: Tab 2 ratings
1 star 2 stars 3 stars 4 stars 5 stars
comments

Hark The Herald Angel Tab

e|----------------|----------------|----------------|----------------
B|----------------|----------------|1---1---1-------|----------------
G|----------------|----2---2---0---|--------------3-|2---0---2--(2)--
D|----3---3-----2-|3---------------|----------------|----------------
A|3---------------|----------------|----------------|----------------
E|----------------|----------------|----------------|----------------
 
e|----------------|----------------|----------------|----------------
B|----------------|----------------|----------------|----------------
G|----------------|----------------|------------0---|----------------
D|----------------|----3---3---2---|3---2---0-------|3---2---3--(3)--
A|0---3---3-----3-|3---------------|----------------|-----------------
E|----------------|----------------|----------------|-----------------


e|----------------|----------------|----------------|----------------
B|----------------|----------------|1---------------|----------------
G|----------------|----2---2---0---|----0---0-------|----------------
D|----3---3-----2-|3---------------|--------------2-|2---0-----------
A|3---------------|----------------|----------------|--------3--(3)--
E|----------------|----------------|----------------|----------------
 
e|----------------|----------------|----------------|----------------
B|----------------|----------------|----------------|----------------
G|----------------|----------------|----------------|----------------
D|----------------|0---3---3--(3)--|2---0---2---2---|----------------
A|0---3---3-----3-|----------------|----------------|3---2---3--(3)--
E|----------------|----------------|----------------|----------------

[ Tab from: http://www.guitartabs.cc/tabs/m/misc_christmas/hark_the_herald_angel_tab.html ]
e|----------------|----------------|----------------|----------------
B|1---1---1-------|----------------|1---1---1-------|----------------
G|----------------|3---2---2---0---|----------------|3---2---2---0---
D|------------3---|----------------|------------3---|----------------
A|----------------|----------------|----------------|----------------
E|----------------|----------------|----------------|----------------
 
e|----------------|----------------|----------------|----------------
B|----------------|----------------|----------------|----------------
G|----------------|0---------------|----------------|0---------------
D|----------------|----3---3---2---|----------------|----3---3---2---
A|3---3---3---3---|----------------|3---3---3---3---|----------------
E|----------------|----------------|----------------|----------------


e|----------------|----------------|----------------|----------------
B|3---3---3---1---|----------------|--------1-------|----------------
G|----------------|3---2---3--(3)--|0---2-3---------|----0---2--(2)--
D|----------------|----------------|--------------3-|3---------------
A|----------------|----------------|----------------|----------------
E|----------------|----------------|----------------|----------------
 
e|----------------|----------------|----------------|----------------
B|----------------|----------------|----------------|----------------
G|3---3---3---2---|0-------0--(0)--|----------------|----------------
D|----------------|----4-----------|2---2---3-------|----2---3--(3)--
A|----------------|----------------|--------------3-|3---------------
E|----------------|----------------|----------------|----------------


e|----------------|----------------|----------------|----------------
B|3-----3-3---1---|----------------|--------1-------|----------------
G|----------------|3---2---3--(3)--|0---2-3---------|----0-----------
D|----------------|----------------|--------------3-|3-------3--(3)--
A|----------------|----------------|----------------|----------------
E|----------------|----------------|----------------|----------------

e|----------------|----------------|----------------|----------------
B|----------------|----------------|----------------|----------------
G|3---3---3---2---|0-------0--(0)--|----------------|----------------
D|----------------|----4-----------|2---2---3-----3-|----------------
A|----------------|----------------|----------------|3---3---3--(3)--
E|----------------|----------------|----------------|----------------

Comments