Misc Christmas - Good King Wenceslas Chords & Tabs

 

Good King Wenceslas Chords & Tabs

Misc Christmas Chords & Tabs

Version: 2 Type: Tab

Good King Wenceslas Tab

   
well this is how it goes,figured it out myself...
-legend-
h=hold note
e|------------------------------------------------------|
B|------------------------------------------------------|
G|------------------------------------------------------|
D|5-5-5-7-5-5-0--2-0-2-4-5-5--5-5-5-7-5-5-0--2-0-2-4-5-5|
A|------------------------------------------------------|
E|------------------------------------------------------|

e|----------------------------------------------------------|
B|----------------------------------------------------------|
G|----------------------------------------------------------|
D|12-10-9-7-9-7-5--2-0-2-4-5-5--0-0-2-4-5-5-7--12-10-9-7-5-5|
A|----------------------------------------------------------|
E|----------------------------------------------------------|

e|--------------------------------------------------------------------------
B|--------------------------------------------------------------------------
G|--------------------------------------------------------------------------
D|--------------------------------------------------------------------------
A|--------------------------------------------------------------------------
E|15-15-15-17-15-15-10--12-10-12-14-15-15--15-15-15-17-15-15-10--12-10-12-14
[ Tab from: http://www.guitartabs.cc/tabs/m/misc_christmas/good_king_wenceslas_tab_ver_2.html ]
e------|
B------|
G------|
D------|
A------|
E-15-15|

e|----------------------------------------------------------|
B|----------------------------------------------------------|
G|----------------------------------------------------------|
D|12-10-9-7-9-7-5--2-0-2-4-5-5--0-0-2-4-5-5-7--12-10-9-7-5-5|
A|----------------------------------------------------------|
E|----------------------------------------------------------|

e|----------------------------------------------------------------------|
B|----------------------------------------------------------------------|
G|----------------------------------------------------------------------|
D|10-10-10-12-10-10-5--7-5-7-9-10-10--10-10-10-12-10-10-5--7-5-7-9-10-10|
A|----------------------------------------------------------------------|
E|----------------------------------------------------------------------|

e|-------------------------------------------------|
B|-------------------------------------------------|
G|-------------------------------------------------|
D|12-10-9-7-9-7-5--7-5-7-9-10-10--5-5-7-9-10-10-12h|
A|-------------------------------------------------|
E|-------------------------------------------------|

(play a bit slower)
e|--------------------|
B|--------------------|
G|--------------------|
D|-----------10-10-10h|
A|--------------------|
E|12-10-8-7-5--7--5---|