Misc Christmas - God Rest You Merry Gentlemen Chords & Tabs

 

God Rest You Merry Gentlemen Chords & Tabs

Misc Christmas Chords & Tabs

Version: 3 Type: Tab 0 ratings
1 star 2 stars 3 stars 4 stars 5 stars
comments

God Rest You Merry Gentlemen Tab

   
Christmas Song - God Rest You, Merry Gentlemen
Submitted By: Chris
EMail: cwsmith@together.netKey:
~-let ring
x-don't play
h-hammer

Chords:
   Em  B7   C   G   B  Am   D
e---0---4---0---3---2---0---2---|
b---0---0---1---0---4---1---3---|
g---0---3---0---0---4---2---2---|
D---2---1---2---0---4---2---0---|
A---2---2---3---2---x---0---x---|
E---0---x---4---3---x---x---x---|

Note:There's not much difference between the first and 
second lines but there's a slight timing difference so 
watch for it.

Verse:  
      Em    B7    Em   C  Em  B7       
e-----------------------------------|
b-------0-0--------------------0~~~-|
g-----------2-0------------0-2------|
D---2-2---------4-2--0-2-4----------|
A-----------------------------------|
E-----------------------------------|
[ Tab from: http://www.guitartabs.cc/tabs/m/misc_christmas/god_rest_you_merry_gentlemen_tab_ver_3.html ]
      Em   B7    Em   C  Em  B7    
e-----------------------------------|
b-------0-0------------------0~~~---|
g-----------2-0----------0-2--------|
D---2-2--------4-2-0-2-4------------|
A-----------------------------------|
E-----------------------------------|

Pre-Chorus:
     Am   G    B7  Em   D   D
e-------------0-------------------|
b---1---0-1-3---0-----------------|
g-----2-----------2-0-----0-2~~---|
D---------------------2-4---------|
A---------------------------------|
E---------------------------------|

Chorus:
        G   C   G  B7 Em        D   Em   G    C Am B7 Em
e---------------------------------------------0--------------|
b-------0~~-1-0-0-----------------------0h1-3---0------------|
g---0h2----------2-0-------0----2~~-0h2----------2-0---------|
D--------------------4-2~~--4-2----------------------4-2~~---|
A------------------------------------------------------------|
E------------------------------------------------------------|

Repeat everything 5x.
Comments