Misc Christmas - God Rest Ye Merry Gentlemen Chords & Tabs

 

God Rest Ye Merry Gentlemen Chords & Tabs

Misc Christmas Chords & Tabs

Version: 2 Type: Tab 1 rating
1 star 2 stars 3 stars 4 stars 5 stars
comments

God Rest Ye Merry Gentlemen Tab

Song: "God Rest Ye Merry Gentlemen"
Artist: public*
Tabbed: Voldemort
E-mail: Voldie127@yahoo.com

*I used the intro from "Christmas Eve (Sarajevo 12/24)" A song by Trans-
Siberian Orchestra.  I simply completed the tune.  It's pretty basic. I 
always wanted a mid-range tab for the song, but could never find one. It is 
my first tab, but it sounds good, I think.  I wish I could figure out 
harmonics, but I'm not that good.  Try it yourself.  If there's any problems
or suggestions, just e-mail me.

[ Tab from: http://www.guitartabs.cc/tabs/m/misc_christmas/god_rest_ye_merry_gentlemen_tab_ver_2.html ]
e---------------------------------------------------------------------------
A---------------------------------------------------------------------------
B---------------------------------------------------------------------------
D---------9-9-7-----------------7-9-------9-9-7-----------------7-9---------
G-----5-7-------10-9-7-5-7-9-10-------5-7-------10-9-7-5-7-9-10-------------
E---------------------------------------------------------------------------

e---------------------------------------------------------------------------
A---------------------------------------------------------------------------
B---------------------------------------------------------------------------
D-----9-10-7-9-10-12-14-9-7-------------------------------------------------
G---------------------------10-7-9-10-12------------------------------------
E---------------------------------------------------------------------------

e---------------------------------------------------------------------------
A---------------------------------------------------------------------------
B-----------------------------------------------------7---------------------
D--------------10-9-9-7--------7-------------------10---9-7-----------------
G-----10/12-14----------10-9-7--10p9/-14---10/12-14----------10-9-7---------
E---------------------------------------------------------------------------
Comments