Misc Christmas - Deck The Halls Chords & Tabs

 

Deck The Halls Chords & Tabs

Misc Christmas Chords & Tabs

Version: 5 Type: Tab 0 ratings
1 star 2 stars 3 stars 4 stars 5 stars
comments

Deck The Halls Tab

   
Deck The Halls

Capo on 5th fret

Intro:                                                                     1.  |                2.  | 
e|-------------------|------------------|------------------|-------------------||-------------------|
B|---3-----1-0-------|--3-----1-0-------|----------0-------|----------0--------||----------0--------|
G|o----0---------2---|----0---------2---|--0---0-2-----0---|--0---0-2-----0---o||--0---0-2---2-0----|
D|o------0-----0---0-|------0-----0---0-|----4-------0---0-|----4-------0---0-o||----4-----------4--|
A|-------------------|------------------|------------------|-------------------||-------------------|
E|---3-------3-------|--2-------2-------|--0-------0-------|--0-------0--------||--0-------0--------|

e|------0-2-3-2-0----|-----0-2-3-2-0----|-----0-2-3-2-0----|-------------------||
B|----0-----------0--|---0-----------0--|---0-----------0--|-------------------||
G|o-----0-------0----|-----0-------0----|-----0-------0----|----2~0---0-------o||
D|o------------------|------------------|------------------|--------4---4-2-0-o||
A|-------------------|------------------|------------------|--0----------------||
E|--0-------0--------|-2-------2--------|-3-------3--------|-------------------||

                                                                           1.  |                2.  |
e|-------------------|------------------|------------------|-------------------||-------------------|
B|---3-----1-0-------|--3-----1-0-------|----------0-------|----------0--------||----------0--------|
G|o----0---------2---|----0---------2---|--0---0-2-----0---|--0---0-2-----0---o||--0---0-2---2-0----|
D|o------0-----0---0-|------0-----0---0-|----4-------0---0-|----4-------0---0-o||----4-----------4--|
A|-------------------|------------------|------------------|-------------------||-------------------|
E|---3-------3-------|--2-------2-------|--0-------0-------|--0-------0--------||--0-------0--------|

e|-------------------|--------------3---|
B|------0-1-----3----|------1-0---------|
G|o---0-------0------|----0-------0----o|
D|o-----0-2----------|------2-0--------o|
A|-------------------|------------------|
E|--3----------------|--3---------------|


Theme:
e|---3-----1-0-------|----------0-------|----0-1---0-------|---------------------|
B|---1-----3-----3---|--1---3-------1---|--3-----3---1---3-|---1---0---1---------|
G|o----0-------0---0-|----0---0---0---0-|----0-2---0-------|-----0---0---0---0--o|
D|o------2-----------|--------------2---|--3-------------3-|---2---0-------2----o|
A|---3-------3---2---|--0---2---3-------|------------------|-----------3---------|
E|-------------------|------------------|--------------3---|---------------------|

e|---------0-1-------|--0-----1-3-------|---0-2-3---5-7-8--|-----7---5---3-------|
B|---3-----1-3---3---|--0-----------3---|------------------|---------------------|
G|-----0-------0---0-|----0-------0---0-|------------------|-------------0-------|
D|-------0-----------|------2-----------|------------------|-----0---------------|
A|-------------------|--3-------3---2---|---3-------0------|---------------------|
E|---3-------3-------|------------------|------------------|---------2---3-------|

e|---3-----1-0-------|----------0-------|--5-5-5-5-3-----1-|---0-----------------||---(7)---|
B|---1-----3-----3---|--1---3-------1---|------------1-----|-------3---1---------||---------|
G|-----0-------0---0-|----0---0---0---0-|--------------0---|-----0---0---0---0--.||---------|
D|-------2-----------|--------------2---|------------------|---------------2----.||---------|
A|---3-------3---2---|--0---2---3-------|----------3-------|-------2---3---------||---------|
E|-------------------|------------------|--1---------------|---3-----------------||---------|


*********************************************************************************************
[ Tab from: http://www.guitartabs.cc/tabs/m/misc_christmas/deck_the_halls_tab_ver_5.html ]
e|---------------------------------------------|
B|---------------------------------------------|
G|--5-----3-----2------------------------------|
D|---------------------5-----3------5---7---3--|
A|---------------------------------------------|
E|---------------------------------------------|
   Deck  the  halls  with  boughs  of  hol-ly

e|---------------------------------------------|
B|---------------------------------------------|
G|---------------------------------------------|
D|--5---7---9---5---7------5---3---2---3-------|
A|---------------------------------------------|
E|---------------------------------------------|
   Fa  la  la  la  la     la  la  la  la   

e|---------------------------------------------|
B|---------------------------------------------|
G|--5-----3-----2------------------------------|
D|-------------------5-----3------5---7---3----|
A|---------------------------------------------|
E|---------------------------------------------|
   Tis   the   seas-on    to     be  jol-ly

e|---------------------------------------------|
B|---------------------------------------------|
G|---------------------------------------------|
D|--5---7---9---5---7------5---3---2---3-------|
A|---------------------------------------------|
E|---------------------------------------------|
   Fa  la  la  la  la     la  la  la  la   

e|---------------------------------------------|
B|---------------------------------------------|
G|---------------------------------------------|
D|--5----7---9----5----7----9--10--5-----------|
A|---------------------------------------------|
E|---------------------------------------------|
   Don  we  now  our  gay  ap-par-el

e|---------------------------------------------|
B|---------------------------------------------|
G|------------------7---9--10------9---7---5---|
D|--7---9-10----------------------------------|
A|---------------------------------------------|
E|---------------------------------------------|
   Fa  la  la      la  la  la     la  la  la


e|---------------------------------------------|
B|---------------------------------------------|
G|--5------3----2------------------------------|
D|------------------5-----3-----5-----7--3-----|
A|---------------------------------------------|
E|---------------------------------------------|
   Troll  the  an-cient  yule  tide  car-ol    

e|---------------------------------------------|
B|---------------------------------------------|
G|---------------------------------------------|
D|--5---7---9---5---7------5---3---2---3-------|
A|---------------------------------------------|
E|---------------------------------------------|
   Fa  la  la  la  la     la  la  la  la   

************************************************

D                   Bm              
Deck the halls with boughs of  hol-ly 

A7          D      D  A7  D     
Fa la la la la, la la la  la

D               Bm            
Tis the sea-son to  be  jol-ly

A7          D      D  A7  D      
Fa la la la la, la la la  la 

A7             D           
Don we now our gay ap-par-el

D         Bm        A7  E7  A7   
Fa la la, la la la, la  la  la

D                  Bm              
Troll the an-cient Yule-tide car-ol
                 
G           D   (G) D  A7 D    
Fa la la la la,  la la la la 



See the blazing Yule before us, Fa ... 
Strike the harp and join the chorus, Fa ... 
Follow me in merry measure, Fa ... 
While I tell the Yuletide treasure, Fa ... 



Fast away the old year passes, Fa ... 
Hail the new, ye lads and lasses, Fa ... 
Sing we joyous all together, Fa ... 
Heedless of the wind and weather, Fa ...
Comments