Misc Christmas - Deck The Halls Chords & Tabs

 

Deck The Halls Chords & Tabs

Misc Christmas Chords & Tabs

Version: 4 Type: Tab 0 ratings
1 star 2 stars 3 stars 4 stars 5 stars
comments

Deck The Halls Tab

This is a easier version of this song than what I've seen out there.
                                                                           
E||-----------------------|----------------------|------------------------|
B||-----------------------|----------------------|------------------------|
G||*--0-------------------|----------------------|------------------------|
D||*---------3--2----0----|-------0----2---------|--0--2--3--0--2------0--|
A||-----------------------|--3--------------3----|------------------------|
E||-----------------------|----------------------|------------------------|


                                                                      
----------------------||----------------------|----------------------|
----------------------||----------------------|----------------------|
---------------------*||----------------------|------------0---------|
---------------------*||--0------2--3----0----|--2------3-------0----|
--3----2----3---------||----------------------|----------------------|
----------------------||----------------------|----------------------|

[ Tab from: http://www.guitartabs.cc/tabs/m/misc_christmas/deck_the_halls_tab_ver_4.html ]
                                                                      
------------------------|---------------------|----------------------|
----------------0--1----|--0------------------|----------------------|
--------0----2----------|-------2----0--------|--0-------------------|
--2--4------------------|---------------------|---------3--2----0----|
------------------------|---------------------|----------------------|
------------------------|---------------------|----------------------|


                                                                       
----------------------|------------------------|---------------------||
----------------------|------------------------|---------------------||
----------------------|------------------------|---------------------||
-------0----2---------|--0--2--3--0--2------0--|---------------------||
--3--------------3----|------------------------|--3----2----3--------||
----------------------|------------------------|---------------------||



Here's a simple bass part to go with the song:
                                                                 
G||--------------------|-------------------|--0-----------------|
D||*-------------------|-------------------|--------------------|
A||*--3----------------|--3----------------|-----------3--------|
E||--------------------|-------------------|--------------------|


                                                               
--0------------------||--0----------------|-------------------|
--------------------*||-------------------|-------------------|
-----------3--------*||-------------------|--3----------------|
---------------------||-------------------|-------------------|


                                                               
--------------------|--0---------0--------|-------------------|
-----------0--------|-------0-------------|-------------------|
--3-----------------|---------------------|--3----------------|
--------------------|---------------------|-------------------|
Comments