Misc Christmas - Deck The Halls Chords & Tabs

 

Deck The Halls Chords & Tabs

Misc Christmas Chords & Tabs

Version: 2 Type: Tab 8 ratings
1 star 2 stars 3 stars 4 stars 5 stars
comments

Deck The Halls Tab

Deck The Halls

ambidash@hotmail.com

Try playing it at different scales.



E:-----------------------------------------------------
B:--10----8-7--5-----5--7-----5-7-8-5--7--5------------
G:----------------7--------7----------------7-6-7------
D:-----------------------------------------------------
A:-----------------------------------------------------
E:-----------------------------------------------------  repeat.

Deck the halls with boughs of holly
Fa la la la la la la la la
'Tis the season to be jolly,
Fa la la la la la la la la



E:--------------------------------------------------------
B:--5--7-8--5--7--8-10--7--8-10-12--12-14-15--14--12--10--
G:--------------------------------------------------------
D:--------------------------------------------------------
A:--------------------------------------------------------
E:--------------------------------------------------------

Don we now our gay apparel,
Fa la la la la la la la la



E:-----------------------------------------------------
B:--10----8-7--5-----5--7-----12-12-12-12-10--8-7-5----
G:----------------7--------7------------------------7--
D:-----------------------------------------------------
A:-----------------------------------------------------
E:-----------------------------------------------------
[ Tab from: http://www.guitartabs.cc/tabs/m/misc_christmas/deck_the_halls_tab_ver_2.html ]
Troll the ancient Yuletide carol,
Fa la la la la la la la la.



E:-----------------------------------------------------
B:--10----8-7--5-----5--7-----5-7-8-5--7--5------------
G:----------------7--------7----------------7-6-7------
D:-----------------------------------------------------
A:-----------------------------------------------------
E:-----------------------------------------------------  repeat.

Fast away the old year passes,
Fa la la la la la la la la
Hail the new, ye lads and lasses, 
Fa la la la la la la la la



E:--------------------------------------------------------------
B:--5--7-8--5--7--8-10--7--8-10-12--12-14-15--14--12--10--------
G:--------------------------------------------------------------
D:--------------------------------------------------------------
A:--------------------------------------------------------------
E:--------------------------------------------------------------

Sing we joyous all together,
Fa la la la la la la la la



E:-----------------------------------------------------
B:--10----8-7--5-----5--7-----12-12-12-12-10--8-7-5----
G:----------------7--------7------------------------7--
D:-----------------------------------------------------
A:-----------------------------------------------------
E:-----------------------------------------------------

Heedless of the wind and weather,
Fa la la la la la la la la.
Comments