Misc Christmas - Deck The Halls Rock Style Chords & Tabs

 

Deck The Halls Rock Style Chords & Tabs

Misc Christmas Chords & Tabs

Version: 1 Type: Tab 0 ratings
1 star 2 stars 3 stars 4 stars 5 stars
comments

Deck The Halls Rock Style Tab

Song: Deck the Halls ( Rock Style )
Artist: Unkown
Tuning: Standard
Tabbed by : Mark Munoz
Date: 12-12-02

 I figured out this song when i was just messing around you probably wont
belive me it sounds really good to be " thought up " but its true well here we
go....  It sounds really good!

    ( Light or Heavy distortion )
E|----------------------------------------------------------------------|
B|----------------------------------------------------------------------|
G|----------------------------------------------------------------------|
D|--12-------10---------9----------7--------5-----------7------9-----5--|
A|----------------------------------------------------------------------|
E|----------------------------------------------------------------------|
   Deck....  the      halls      with    boughs        of     ho -  lly

E|----------------------------------------------------------------------|
B|----------------------------------------------------------------------|
G|----------------------------------------------------------------------|
D|--7--------9--------10-------7----------9-------7----5----4--------5--|
A|----------------------------------------------------------------------|
E|----------------------------------------------------------------------|
   Fa       la        la       la         la...   la  la   la        la!   
[ Tab from: http://www.guitartabs.cc/tabs/m/misc_christmas/deck_the_halls_rock_style_tab.html ]
 
E|----------------------------------------------------------------------|
B|----------------------------------------------------------------------|
G|----------------------------------------------------------------------|
D|--12-------10---------9----------7--------5-----------7------9-----5--|
A|----------------------------------------------------------------------|
E|----------------------------------------------------------------------|
   Tis      the       sea         son      to          be     jo -  lly

E|----------------------------------------------------------------------|
B|----------------------------------------------------------------------|
G|----------------------------------------------------------------------|
D|--7--------9--------10-------7----------9-------7----5----4--------5--|
A|----------------------------------------------------------------------|
E|----------------------------------------------------------------------|
   Fa       la        la       la         la...   la  la   la        la!   

 
E|----------------------------------------------------------------------|
B|----------------------------------------------------------------------|
G|----------------------------------------------------------------------|
D|------7-----9-------10----------7-----9------10----12-----7-----------|
A|----------------------------------------------------------------------|
E|----------------------------------------------------------------------|
       Don    we      now         our  gay     a -  parr - ell!

E|----------------------------------------------------------------------|
B|----------------------------------------------------------------------|
G|----------------------------------------------------------------------|
D|----9-----10----12-----14-----16-----17-----16-----14-------12--------|
A|----------------------------------------------------------------------|
E|----------------------------------------------------------------------|
     Fa     la    la     la     la     la     la     la       la!


Well thats it theres a lot more verses but its all the same music the you also
can add palm mutes and make it go faster for a more punk sound. Well thats all
RATE PLEASE! Merry Christmas! BOU!
Comments