Misc Christmas - Carol Of The Bells Chords & Tabs

 

Carol Of The Bells Chords & Tabs

Misc Christmas Chords & Tabs

Version: 2 Type: Tab 0 ratings
1 star 2 stars 3 stars 4 stars 5 stars
comments

Carol Of The Bells Tab

   
Carol of the bells (solo guitar)
                                                       
E||-------------------------|-------------------------|
B||--11----10----11----8-|--11----10---11--8----|
G||-------------------------|-------------------------|
D||-------------------------|-------------------------|
A||-------------------------|-------------------------|
E||-------------------------|-------------------------|


                                                                              
-------------------------|-------------------------|--10----8----10----------|
--11--10---11----8----|--11----10----11----8-|-------------------11----|
-------------------------|-------------------------|-------------------------|
-------------------------|-------------------------|-------------------------|
-------------------------|-------------------------|-------------------------|
-------------------------|-------------------------|-------------------------|


                                                                              
--10----8----10--------|--10----8----10--------|--10----8----10--------|
-------------------11---|-------------------11---|-------------------11----|
-------------------------|-------------------------|-------------------------|
-------------------------|-------------------------|-------------------------|
-------------------------|-------------------------|-------------------------|
-------------------------|-------------------------|-------------------------|

[ Tab from: http://www.guitartabs.cc/tabs/m/misc_christmas/carol_of_the_bells_tab_ver_2.html ]
                                                                      
-15--15--15--13----11--10-|--10--10--10--8--8--8--8--8h10h8------|
--------------------------------|---------------------------------------11-|
--------------------------------|-------------------------------------------|
--------------------------------|-------------------------------------------|
--------------------------------|-------------------------------------------|
--------------------------------|-------------------------------------------|


                                                                         
----------------------|-----------------------|--------------8----10----|
--8---8---8----8----|------------------8----|--10----11--------------|
----------------------|--7----9----11-------|--------------------------|
----------------------|-----------------------|-------------------------|
----------------------|-----------------------|-------------------------|
----------------------|-----------------------|-------------------------|


                                                                        
--8------------------|-----------------------|--------------8----10----|
----------11--------|------------------8----|--10----11---------------|
---------------------|--7----9----11--------|-------------------------|
---------------------|-----------------------|-------------------------|
---------------------|-----------------------|-------------------------|
---------------------|-----------------------|-------------------------|



                                                                              
--8----------------------|-------------------------|-------------------------|
-----11----11----10----|--11---8---11---10----|--11----8---11---10---|
-------------------------|-------------------------|-------------------------|
-------------------------|-------------------------|-------------------------|
-------------------------|-------------------------|-------------------------|
-------------------------|-------------------------|-------------------------|


                               A#      A#       
-----------------------|-------18------1------||
--11---8s/---3s/--8-|--8----18------3------||
-----------------------|-------19------3------||
-----------------------|-------20------3------||
-----------------------|-------20------1------||
-----------------------|-------18-------------||
Comments