Misc Christmas - Carol Of The Bells Chords & Tabs

 

Carol Of The Bells Chords & Tabs

Misc Christmas Chords & Tabs

Version: 1 Type: Tab 3 ratings
1 star 2 stars 3 stars 4 stars 5 stars
comments

Carol Of The Bells Tab

Song: Carol of the Bells
Artist: Some classical composer
Tabber: nayrwiggy

This is based largely on the Trans-Siberian Orchestra's version

Main riff:
e-----------------------------------------
B-----------------------------------------
G-----------------------------------------
D-8-7-8-5--8-7-8-5--8-7-8-5--8-7-8-5------
A-----------------------------------------
E-----------------------------------------
[ Tab from: http://www.guitartabs.cc/tabs/m/misc_christmas/carol_of_the_bells_tab.html ]
Harmony:
e-----------------------------------------
B-----------------------------------------
G-7-5-7-----7-5-7----7-5-7---7-5-7--------
D-------8---------8--------8-------8------
A-----------------------------------------
E-----------------------------------------

Lead Part:     
e---------------------------------I---------------------
B-8-8-6---------------------------I---------------------
G-------8-7-7-5---5-5-5h7-5-------I-------------5h7-5---
D---------------8-----------8-5-5-I-------5-7-8-------8-
A---------------------------------I-5-7-9---------------
E---------------------------------I---------------------
                                     (this part twice)

The order of the stuff is like this:
Guitar 1: Main riff 6 times, then plays second half of Lead part in 
unision with Guitar 2
Guitar 2: Main riff 2 times, Harmony twice, Lead part once
Comments