Misc Christmas - Away In A Manger Chords & Tabs

 

Away In A Manger Chords & Tabs

Misc Christmas Chords & Tabs

Version: 4 Type: Tab 0 ratings
1 star 2 stars 3 stars 4 stars 5 stars
comments

Away In A Manger Tab

Hey everyone! This is the first tab I have done (for this site) but I am
100% sure that its correct. Its super easy to play and I even included all
three of the verses for you if you want to sing along. The tabs are the same
for each verse so I simply numbered them for you below. Hope you like it!



E|--3--3--1--0--0--------------------------------------------------0--|
B|-----------------3--1--1--0-----------------------3--0--------1-----|
G|-----------------------------2--0--0--0--2--0--0--------2--0--------|
D|--------------------------------------------------------------------|
A|--------------------------------------------------------------------|
E|--------------------------------------------------------------------|
[ Tab from: http://www.guitartabs.cc/tabs/m/misc_christmas/away_in_a_manger_tab_ver_4.html ]
1|Away in a manger, no crib for His bed. The little Lord Jesus, laid down His sweet head.
2|The cattle are lowing, the poor Baby wakes. But little Lord Jesus, no crying He makes.
3|Be near me, Lord Jesus, I ask Thee to stay. Close by me forever, and love me I pray.



E|--3--3--1--0--0-----------------------1--0-----0--------------------|R
B|-----------------3--1--1--0-----------------3-----3--1--3-----0--1--|E
G|-----------------------------2--0--0-----------------------2--------|P
D|--------------------------------------------------------------------|E
A|--------------------------------------------------------------------|A
E|--------------------------------------------------------------------|T x3

1|The stars in the bright sky, looked down where He lay. The little Lord Jesus, asleep on the hay.
2|I love Thee, Lord Jesus, look down from the sky. And stay by my side, until morning is nigh.
3|Bless all the dear children, in Thy tender care. And take us to heaven, to live with Thee there.
Comments