Misc Christmas - Away In A Manger Chords & Tabs

 

Away In A Manger Chords & Tabs

Misc Christmas Chords & Tabs

Version: 1 Type: Tab 0 ratings
1 star 2 stars 3 stars 4 stars 5 stars
comments

Away In A Manger Tab

Christmas Song, Away in a Manger

-ibanezgrrl
[ Tab from: http://www.guitartabs.cc/tabs/m/misc_christmas/away_in_a_manger_tab.html ]
e--------------------------------------------
b1-1-----------------------------------------
g---3-2-2-0--------------------0----------2--
d----------3-3-2-0-------0-------2-0---3-----
a-----------------3---3-3--3-3-------3-------
e--------------------------------------------


e--------------------------------------------
b1-1-----------------------------------------
g---3-2-2-0-----------3-2-0-2-0---0----------
d----------3-3-2-0--------------3---0-2-3----
a-----------------3-3------------------------
e--------------------------------------------
Comments