Misc Christmas - Auld Lang Syne Chords & Tabs

 

Auld Lang Syne Chords & Tabs

Misc Christmas Chords & Tabs

Version: 3 Type: Tab 0 ratings
1 star 2 stars 3 stars 4 stars 5 stars
comments

Auld Lang Syne Tab

   
-------------------------------------------------------------------------------
	         Auld Lang Syne  Traditional Holiday Song
-------------------------------------------------------------------------------
Tabbed by: Thejoker92
Email: satxmstrb8r2@yahoo.com

Tuning: Standard

e|---------------------------------------------0--0--------------------------|
B|---------------0-----------0-----------0--3--1-----3--0--0--------------0--|
G|------0-----0-----2--0--2-----2--0--0--0-----0-----0-----0--0--2--0--2-----|
D|---0--0--4--------------0--------2-----3-----------------------2-----1-----|
A|---------------------------------------------------------------------------|
E|---------------------------------------------------------------------------|
[ Tab from: http://www.guitartabs.cc/tabs/m/misc_christmas/auld_lang_syne_tab_ver_3.html ]
e|---------------------3--0-----------------------0--------------0-----0-----|
B|---------------------0-----3--0--0-----------------3--0--0--3--1--------3--|
G|---2--0-----------0--------0-----0--0--2--0--2-----0-----0-----0--------0--|
D|------2--2--2--0-----------------------2-----0-----------3-----------------|
A|------------0-----------------------------------------------------3--------|
E|---------------------------------------------------------------------------|

e|---------------------------------------------------------------------------|
B|---0--0--------------0-----------------------------------------------------|
G|------0--0--2--0--2-----2--0-----------0-----------------------------------|
D|------------2-----1--------2--2--2--0--0-----------------------------------|
A|------------0-----2--------------0-----2-----------------------------------|
E|---------------------------------------------------------------------------|



| /  slide up
| \  slide down
| h  hammer-on
| p  pull-off
| ~  vibrato
| +  harmonic
| x  Mute note
===============================================================================
Comments