Misc Christmas - Auld Lang Syne Chords & Tabs

 

Auld Lang Syne Chords & Tabs

Misc Christmas Chords & Tabs

Version: 2 Type: Tab 0 ratings
1 star 2 stars 3 stars 4 stars 5 stars
comments

Auld Lang Syne Tab

-------------------------------------------------------------------------------
			     Auld Lang Syne
-------------------------------------------------------------------------------
Tabbed by: Tom S.
Email: boredinbh@gmail.com


This is my rockin' version of Auld Lang Syne which uses mostly power chords.
I think it sounds great with some distortion or other effects. I noted mostly
just one chord for each but strum it however you like. I strum it differently
to add some more flare to it but those are the main chords I use.
So, just play around with it and have fun! Let me know what you think!


 4 = quarter note
 2 = half note
 8 = eighth note
 3/4 = three quarter note
 >> = slide
 p = pull


    4   2   8   8   4   2   8   8   8  8   2   8   4   4  3/4  4   2   8   8
e|---------------------------------------------------------------------------|
B|-----------------------------------------------------8---10--10--8---------|
G|------5---4---5---9---7---5---7---9>>7---5---5---9---7---9---9---7---9---9-|
D|--5---5---5---5---9---7---5---7----------5---5---9---5---7---7---5---9---9-|
A|--5---3-------3---7---5---3---5---7>>5---3---3---7---5---7---7---5---7---7-|
E|--3-------3----------------------------------------------------------------|
[ Tab from: http://www.guitartabs.cc/tabs/m/misc_christmas/auld_lang_syne_tab_ver_2.html ]
    4   2   8   8   8  8   2   8   8   4  3/4
e|---------------------------------------------------------------------------|
B|---------------------------------------------------------------------------|
G|--5---7---5---7---9>>7---5---2---2-------5---------------------------------|
D|--5---7---5---7----------5---2---2---5---5---------------------------------|
A|--3---5---3---5---7>>5---3-----------5---3---------------------------------|
E|-------------------------------------3-------------------------------------|


Here's some melody. I'm tired of figuring out the timing but just play around
with it, I'm sure you'll get it. ;)


e|---------------------------------------------------------------------------|
B|-----------------------17--15------15--17p15----------17--20--22--22--20---|
G|--12--12>>17--16--17-----------17-------------17--17-----------------------|
D|---------------------------------------------------------------------------|
A|---------------------------------------------------------------------------|
E|---------------------------------------------------------------------------|

e|---------------------------------------------------------------------------|
B|--17--17--13--15--13--15--15>>17>>15--13--------------13-------------------|
G|------------------------------------------14--14--12-----------------------|
D|---------------------------------------------------------------------------|
A|---------------------------------------------------------------------------|
E|---------------------------------------------------------------------------|
Comments