Misc Christmas - Auld Lang Syne Chords & Tabs

 

Auld Lang Syne Chords & Tabs

Misc Christmas Chords & Tabs

Version: 2 Type: Bass Tab 0 ratings
1 star 2 stars 3 stars 4 stars 5 stars
comments

Auld Lang Syne Bass Tab

[-------------------------------7-9---9-7-------------------------------]
[-----4-5--9-7--5-7--9-7-5--5-9-----------9-9--5-7--5-7--9-7-5--------5-]
[---5----------------------------------------------------------7-7--5---]
[--5--------------------------------------------------------------------]
[ Tab from: http://www.guitartabs.cc/tabs/m/misc_christmas/auld_lang_syne_btab_ver_2.html ]
[-----------------------------------------------------------------------]
[--9-7-----------------9-7------7-9-------------------------------------]
[------9-9--5--7-5--7-------9-9-----9-9--5--7-5-7--9-7-5---------5------]
[---------------------------------------------------------7-7--5--------]

Merry Christmas and Happy New Year! From H. Wijaya :)
Comments