Misc Childrens - Turkey In The Straw Chords & Tabs

 

Turkey In The Straw Chords & Tabs

Misc Childrens Chords & Tabs

Version: 1 Type: Tab 0 ratings
1 star 2 stars 3 stars 4 stars 5 stars
comments

Turkey In The Straw Tab

Turkey in the Straw
Tabbed by springwaffle

Also known as "Do Your Ears Hang Low?"
[ Tab from: http://www.guitartabs.cc/tabs/m/misc_childrens/turkey_in_the_straw_tab.html ]
e|---------------------------------------------
b|*-12-10----------10--------------------------
g|--------12-11-12----12------------------9----
d|-----------------------12-9-10-12-11-12---12-
a|*--------------------------------------------
e|---------------------------------------------
  _____________________________________
 | 1
e--------------------------------------|
b----10-12--12--12-10----10-12-10--10-*|
g-12------------------12---------------|
d--------------------------------------|
a-------------------------------------*|
e--------------------------------------|
  _______________________________________
 | 2
e----------10--12-10---------------------
b----10-12-----------12----10-12--10-----
g-12--------------------12------------12-
d----------------------------------------
a----------------------------------------
e----------------------------------------

e----10-----10-10-----10-----10--10-----12-----12-12-----12-----12-
b-12-----12--------12-----12---------13-----13--------13-----13----
g------------------------------------------------------------------
d------------------------------------------------------------------
a------------------------------------------------------------------
e------------------------------------------------------------------

e-14--15-15--10-10----------------------10--12-10-----------------------
b-------------------12-12--10-----10-12-----------12----10-12----10-----
g------------------------------12--------------------12-------12-----12-
d-----------------------------------------------------------------------
a-----------------------------------------------------------------------
e-----------------------------------------------------------------------

Corrections/comments/etc. can be sent to: springwaffle@comcast.net
Comments