Misc Cartoons - Thundercats Theme Chords & Tabs

 

Thundercats Theme Chords & Tabs

Misc Cartoons Chords & Tabs

Version: 1 Type: Bass Tab 0 ratings
1 star 2 stars 3 stars 4 stars 5 stars
comments

Thundercats Theme Bass Tab

Thundercats theme
Ryan McGinness
this probably doesn't even have bass but i just did the tune cos i am 
crap and couldn't do anything else

intro:
G-----------------------------------|
D-----------------------------------|
A--5-5-5-5-5-5-5-5-5-5-5-5-5-5-5-5--|
E-----------------------------------|

16th notes (semi quavers) on D


G-------------------------|
D-------------------------|
A--2-2--4-4--5-5--7-7--9--|
E-------------------------|
"thunder thunder thunder thunder cats" first time

[ Tab from: http://www.guitartabs.cc/tabs/m/misc_cartoons/thundercats_theme_btab.html ]
G--------------------------|
D--------------------------|
A--5-5--7-7--9-9--10-10--12|
E--------------------------|
"thunder thunder thunder thunder cats" second time


G-------------------------|
D-------------------------|
A--2-2--4-4--5-5--7-7--9--|
E-------------------------|
"thunder thunder thunder thunder cats" third time


G--------------------------|
D--------------------------|
A--5-5--7-7--9-9--12-12--14|
E--------------------------|
"thunder thunder thunder thunder cats" fourth time


back to playing intro

then:

G-------------------------|
D-------------------------|
A--2-2--4-4--5-5--7-7--9--|
E-------------------------|

G--------------------------|
D--------------------------|
A--5-5--7-7--9-9--12-12--14|
E--------------------------|
Comments