Misc Cartoons - South Park Theme Chords & Tabs

 

South Park Theme Chords & Tabs

Misc Cartoons Chords & Tabs

Version: 3 Type: Tab 0 ratings
1 star 2 stars 3 stars 4 stars 5 stars
comments

South Park Theme Tab

   
Gtr I (E A D G B E) - 'clean electric'

Q=148
 4/4
  Gtr I
  S S S S  E S S S  S E  E  E    S  S  E S S E E +E   Q    E E E E E E E E
|----------9----------9-------|-----------------------0--|---2---2---2---2--|
|-x-x-x-x-13-x-x-x-13------10-|-10-10-10-9-9-9-7-(7)/-2--|---1---1---1---1--|
|-----------------------11----|-11-11-11-9-9-9-7-(7)/----|------------------|
|-----------------------------|--------------------------|------------------|
|-----------------------------|--------------------------|------------------|
|-----------------------------|--------------------------|------------------|


                        ~          ~            ~          ~
  E E E E E E E E   E E Q   A  E E Q     A  E E Q   A  E E Q
|---2---3---2---2s|=5-5-5--(5)s8-8-8--|-(8)s5-5-5--(5)s8-8-8--|
|---1---1---1---1s|=4-4-4--(4)s7-7-7--|-(7)s4-4-4--(4)s7-7-7--|
|-----------------|-------------------|-----------------------|
|-----------------|-------------------|-----------------------|
|-----------------|-------------------|-----------------------|
|-----------------|-------------------|-----------------------|

[ Tab from: http://www.guitartabs.cc/tabs/m/misc_cartoons/south_park_theme_tab_ver_3.html ]
  E E E E E E E E   E E E E E E E E
|---2---2---2---2-|---2---2---2---2s|
|---1---1---1---1-|---1---1---1---1s|
|-----------------|-----------------|
|-----------------|-----------------|
|-----------------|-----------------|
|-----------------|-----------------|


      ~          ~            ~          ~
  E E Q   A  E E Q     A  E E Q   A  E E Q
|-5-5-5--(5)s8-8-8--|-(8)s5-5-5--(5)s8-8-8--|
|-4-4-4--(4)s7-7-7--|-(7)s4-4-4--(4)s7-7-7--|
|-------------------|-----------------------|
|-------------------|-----------------------|
|-------------------|-----------------------|
|-------------------|-----------------------|


  S S S  S  E  E S  S  E  E  E   S S S S  E S S S S  S  S  S  S  S  S
|-----------9----------9-------|----------9---------12-12-13-13-12-12-|
|-x-x-x-13-13-13-x-13-13----10-|-x-x-x-x-13-x-x-x-x-------------------|
|------------------------11----|--------------------------------------|
|------------------------------|--------------------------------------|
|------------------------------|--------------------------------------|
|------------------------------|--------------------------------------|


   E  E  E  E  E  E  Q     E  E  Q    A   E  E  Q
|-11-11-11-11s14-14-14S=|=11-11-11--(11)s14-14-14\--|
|-10-10-10-10s13-13-13S=|=10-10-10--(10)s13-13-13\--|
|-----------------------|---------------------------|
|-----------------------|---------------------------|
|-----------------------|---------------------------|
|-----------------------|---------------------------|


  S S S S  E S S S  S E  E  E   S S  E S S e E E Q
|----------9----------9-------|------9-----5-5------*|
|-x-x-x-x-13-x-x-x-13------10-|-x-x-13-x-x-4-4------*|
|-----------------------11----|---------------------*|
|-----------------------------|---------------------*|
|-----------------------------|---------------------*|
|-----------------------------|---------------------*|
Comments