Misc Cartoons - South Park Theme Chords & Tabs

 

South Park Theme Chords & Tabs

Misc Cartoons Chords & Tabs

Version: 2 Type: Tab 0 ratings
1 star 2 stars 3 stars 4 stars 5 stars
comments

South Park Theme Tab

Title: South Park Theme
submitted by Treyrab
treyrab@hotmail.com

-9---x--x---------------------|-------------------------15-||-----------------|
-13--x--x--13--13--14---------|-10--10--10--9--9--9--7--14-||-----------------|
-----------------------11--14-|--8---8---8--7--7--7--5-----||*-11--x--11--x---|
------------------------------|----------------------------||*-10--x--10--x---|
------------------------------|----------------------------||-----------------|
------------------------------|----------------------------||-----------------|


---------------------------------------|------------------------|-------------|
---------------------------------------|-10--10--10--13--13--13-|-10--10--10--|
-11--x--11--x--11--x--11--x--11--x--11-|--8---8---8--11--11--11-|--8---8---8--|
-10--x--10--x--10--x--10--x--10--x--10-|------------------------|-------------|
---------------------------------------|------------------------|-------------|
---------------------------------------|------------------------|-------------|

[ Tab from: http://www.guitartabs.cc/tabs/m/misc_cartoons/south_park_theme_tab_ver_2.html ]
--------------||-9----------------------------|-13-|-11--11--11--14--14--14--|
-13--13--13---||-13--x--x--13--13--14---------|----|-10--10--10--13--13--13--|
-11--11--11-*-||-----------------------11--14-|----|-------------------------|
------------*-||------------------------------|----|-------------------------|
--------------||------------------------------|----|-------------------------|
--------------||------------------------------|----|-------------------------|


-11--11--11--14--14--14-|-9---x--x---------------------|-x--x--9---x--x--9----|
-10--10--10--13--13--13-|-13--x--x--13--13--14---------|-x--x--13--x--x--13---|
------------------------|-----------------------11--14-|----------------------|
------------------------|------------------------------|----------------------|
------------------------|------------------------------|----------------------|
------------------------|------------------------------|----------------------|


-9----------------------------------------------------------------------------|
-13---------------------------------------------------------------------------|
------------------------------------------------------------------------------|
------------------------------------------------------------------------------|
------------------------------------------------------------------------------|
------------------------------------------------------------------------------|
Comments