Misc Cartoons - Simpsons Theme Chords & Tabs

 

Simpsons Theme Chords & Tabs

Misc Cartoons Chords & Tabs

Version: 2 Type: Bass Tab 0 ratings
1 star 2 stars 3 stars 4 stars 5 stars
comments

Simpsons Theme Bass Tab

   
The Simpsons - Theme
Submitted By: Gabe


G|-----1-4-2----------------------------------|
D|-0-4------4-0-----------------0-0-0-0-------|
A|-------------2-----0-------0-3--------------|
E|--------------4-4-4--4-4-4------------------|
===========Themes/miss. - The Simpsons Bass
Submitted By: Bob
EMail: unc1242@hotmail.com

Tuning: Standard (E A D G B E)

this is my first tab but give it a try 

[ Tab from: http://www.guitartabs.cc/tabs/m/misc_cartoons/simpsons_theme_btab_ver_2.html ]
G-------------7--------------------------------------------------------
D-----6-8-------9---6--------------------------------------------------
A--7----------------------7--------------------------------6--7777-----
E-----------------------------9--666-7---9--666-7----------------------
===========simpsons theme song
this is the simpsons heme song i got from someone
qustions: nutown@yahoo.com

g7--------------------------------
d--6896---------------------------
a------7--7--6--776-777 9667--9667
e---------------------------------

this is all i got repeat if you want 
enjoy!
Comments