Misc Cartoons - Scooby-doo Theme Chords & Tabs

 

Scooby-doo Theme Chords & Tabs

Misc Cartoons Chords & Tabs

Version: 1 Type: Tab 0 ratings
1 star 2 stars 3 stars 4 stars 5 stars
comments

Scooby-doo Theme Tab

------------------------------------------------------------------------------|
-3--7--7--5--5--3--3--5--7--0--0--------7--5--5--7--7--7--5--5--3--3--5--7----|
----------------------------------2--2----------------------------------------|
------------------------------------------------------------------------------|
------------------------------------------------------------------------------|
------------------------------------------------------------------------------|


---------------------||-------------------------------------------------------|
-8--0--------7--5--5-||-----7----------3--------------------------------------|
-------2--2---------*||-------------------------------------------------------|
--------------------*||-------------------------------------------------------|
---------------------||-------------------------------------------------------|
---------------------||-------------------------------------------------------|
[ Tab from: http://www.guitartabs.cc/tabs/m/misc_cartoons/scooby_doo_theme_tab.html ]
Comments