Misc Cartoons - Popeye The Sailor Man Theme Chords & Tabs

 

Popeye The Sailor Man Theme Chords & Tabs

Misc Cartoons Chords & Tabs

Version: 2 Type: Tab 0 ratings
1 star 2 stars 3 stars 4 stars 5 stars
comments

Popeye The Sailor Man Theme Tab

Title: Popeye Theme Song
submitted by Treyrab
Treyrab@hotmail.com

------------------------------------------------------------------------------|
-1--0--1--------------------1--1--3--2--3--------------------------------0----|
----------------0--------0-----------------------------------0--0--0--2-------|
-------------------3--2--------------------0--0--0--------0-------------------|
----------3--3--------------------------------------3--2----------------------|
------------------------------------------------------------------------------|

[ Tab from: http://www.guitartabs.cc/tabs/m/misc_cartoons/popeye_the_sailor_man_theme_tab_ver_2.html ]
------------------------------------------------------------------------------|
-1--0-------------------------------------------------------------------------|
-------2--0--2--0-----------------------------------------------------0-------|
-------------------3--2--3--2--0-----0-----------------------0--2--3-----2----|
----------------------------------3-----3--2--0-----0--2--3-------------------|
-------------------------------------------------3----------------------------|


------------------------------------------------------------------------------|
------------------------------------------------------------------------------|
------------------------------------------------------------------------------|
------------------------------------------------------------------------------|
-3--3-------------------------------------------------------------------------|
------------------------------------------------------------------------------|
Comments