Misc Cartoons - Pink Panther Theme Chords & Tabs

 

Pink Panther Theme Chords & Tabs

Misc Cartoons Chords & Tabs

Version: 8 Type: Tab 0 ratings
1 star 2 stars 3 stars 4 stars 5 stars
comments

Pink Panther Theme Tab

Pink Panther Theme
Tabbed by Wes Chennault

The other tabs are pretty close, but this is what I got.

e|---------------|
B|---------------|
G|---------------|
D|---------------|
A|-4/5-6/7-------|
E|----------7--0-|

e|--------------------------------------------|
B|--------------------------------------------|
G|-----------------------5p4------------------|
D|----------4h5------4h5------5-8-7---5-------|
A|-4/5-6/7-------6h7--------7-----------7-5-7-|
E|--------------------------------------------|
[ Tab from: http://www.guitartabs.cc/tabs/m/misc_cartoons/pink_panther_theme_tab_ver_8.html ]
e|-----------------------------------|
B|-----------------------------------|
G|-----------------------5p4----9-8~-|
D|----------4h5------4h5------5------|
A|-4/5-6/7-------6h7--------7--------|
E|-----------------------------------|

e|-----------------------------------------------|
B|-----------------------------------------------|
G|---------9-7-----------------------------------|
D|-------------9-7-5---8p7-8p7-8p7-8p7-5---------|
A|-4/5-6/7-----------7-------------------7-5-7-7-|
E|-----------------------------------------------|

Peace.
Comments