Misc Cartoons - Pink Panther Theme Chords & Tabs

 

Pink Panther Theme Chords & Tabs

Misc Cartoons Chords & Tabs

Version: 2 Type: Tab 0 ratings
1 star 2 stars 3 stars 4 stars 5 stars
comments

Pink Panther Theme Tab

Subject: misc_soundtracks/pink_panther.tab
Date: Fri, 06 Nov 1998 03:00:57 PST
From: "Marcin Danko" 
To: media@imedia.com.pl

Artist: ?
Title: Pink Panther
Album: Soundtrack

e|------------------------------------------------------------------------------
B|----------5---------------5----------------5---------------5------------------
G|------------4-4-------------4-4-5------------4-4-------------4-4-5------------
D|----------------5--------------------------------5----------------------------
A|------------------------------------------------------------------------------
E|--5-6-6-7---------6-5-5-4----------5-6-6-7---------6-5-5-4--------------------

e|----------------------8-7-----7-6---------------------------------------------
B|----------7-8-----7-8-------8-----10-8----------------------------------------
G|--6-7-8-9-----8-9---------9------------9-7-9-9/-------------------------------
D|------------------------------------------------------------------------------
A|------------------------------------------------------------------------------
E|------------------------------------------------------------------------------

e|----------------------8-7-----11-12-------------------------------------------
B|----------7-8-----7-8-------8-------------------------------------------------
G|--6-7-8-9-----8-9---------9---------------------------------------------------
D|------------------------------------------------------------------------------
A|------------------------------------------------------------------------------
E|------------------------------------------------------------------------------
[ Tab from: http://www.guitartabs.cc/tabs/m/misc_cartoons/pink_panther_theme_tab_ver_2.html ]
e|----------------------8-7-----7-6---------------------------------------------
B|----------7-8-----7-8-------8-----10-8----------------------------------------
G|--6-7-8-9-----8-9---------9------------9-7-9-9/-------------------------------
D|------------------------------------------------------------------------------
A|------------------------------------------------------------------------------
E|------------------------------------------------------------------------------

e|----------11-10---------------------------------------------------------------
B|----------------11-10------11-10-11-10-11-10----------------------------------
G|----------------------12-9-------------------12-9----9-9/---------12-9----9-9/
D|--------------------------------------------------12-------------------12-----
A|------------------------------------------------------------------------------
E|--5-6-6-7-------------------------------------------------6-5-5-4-------------

e|------------------------------------------------------------------------------
B|------------------------------------------------------------------------------
G|----------12-9----9-9/---------12-9----9-9------------------------------------
D|---------------12-------------------12----------------------------------------
A|------------------------------------------------------------------------------
E|--5-6-6-7--------------6-5-5-4------------------------------------------------

from here's the way i like to finish it:
e|------------------------------------------------------------------------------
B|--------10-10-11--10-11-10----10----------------------------------------------
G|--12-12--------------------12----12-9------------9-9--9-12-9----9-9-----------
D|--------------------------------------12-12--9-9------------12----------------
A|------------------------------------------------------------------------------
E|------------------------------------------------------------------------------

Marcin Danko // diablo_md@hotmail.com
             // ICQ 8295177

______________________________________________________
Get Your Private, Free Email at http://www.hotmail.com
Comments