Misc Cartoons - Pink Panther Theme Chords & Tabs

 

Pink Panther Theme Chords & Tabs

Misc Cartoons Chords & Tabs

Version: 4 Type: Bass Tab 0 ratings
1 star 2 stars 3 stars 4 stars 5 stars
comments

Pink Panther Theme Bass Tab

==============================Pink Panther===================================
[ Tab from: http://www.guitartabs.cc/tabs/m/misc_cartoons/pink_panther_theme_btab_ver_4.html ]
Tuning:Standard(EADG)
This song is VERY easy. After about 10 minutes you should have it down.
Other tabs by me:Cold-Stupid Girl(bass) and MxPX-Kings of Hollywood-Intro(bass) 
E-mail me:bassgenious@aol.com
The timing on this song is weird (not hard though),so play in front of a
parentand ask them to hum to it or something (sorry to the parents for making
ya feel
old).
NOTE:~ means let the note ring until it just about dies out.

  INTRO
G|---------------------------------------| (X2)
D|-----------(the second time around,----|
A|---4-5--6-7-play it just barely faster)|
E|---------------------------------------|

  MAIN RIFF
G|--5-4----------------| (play a few times)
D|--------5-9-8-7-5----|
A|------7-----------7-7|
E|---------------------|

  OUTRO
G|-----------|
D|--7-5------|
A|-------757~|
E|-----------|

And that's it! Have fun!
Comments