Misc Cartoons - Neon Genesis Evangelion - Misato Chords & Tabs

 

Neon Genesis Evangelion - Misato Chords & Tabs

Misc Cartoons Chords & Tabs

Version: 1 Type: Bass Tab 0 ratings
1 star 2 stars 3 stars 4 stars 5 stars
comments

Neon Genesis Evangelion - Misato Bass Tab

|>>>>>>> Misato >>>>>>>>>>|
| Neon Genesis Evangelion |
|<<<<<<<<<<<<<<<<<<<<<<<<<|


|>>>> Tabbed by EricTheGardener from original music by Shiroh Sagisu >>>>|
|<<<<<<<<<<<< Corrections/suggestions to: sjlc2k@hotmail.com <<<<<<<<<<<<|
 ________
|Part One|
|________|>>>>>>>>>>>>>>>>>>>>>>>>>>>>>>

   1 + 2 + 3 + 4 +   1 + 2 + 3 + 4 +
G|-----------------|-----------------|
D|-----------------|-----------------|
A|-3-----3-0-----0-|-5-----5---------|
E|-----------------|---------3---3---|

   1 + 2 + 3 + 4 +   1 + 2 + 3 + 4 +
G|-----------------|-----------------|
D|-----------------|-----------------|
A|-0-----0-7-----7-|-5-----5------0--|
E|-----------------|---------3---3-3-|

<<<<<<<<<<<<<<<<<<<<<<<<<<<<<<<<<<<<<<<
[ Tab from: http://www.guitartabs.cc/tabs/m/misc_cartoons/neon_genesis_evangelion_misato_btab.html ]
 ________
|Part Two|
|________|>>>>>>>>>>>>>>>>>>>>>>>>>>>>>


   1 + 2 + 3 + 4 +   1 + 2 + 3 + 4 +
G|-----------------|-----------------|
D|-----------------|-----------------|
A|-----------------|-----------------|
E|-1-----1-1-----1-|-2-----2-2-----2-|

   1 + 2 + 3 + 4 +   1 + 2 + 3 + 4 +
G|-----------------|-----------------|
D|-----------------|-----------------|
A|-----------------|-----------------|
A|-----------------|--------------3--|
E|-3-3-4-4-------5-|-------------3-1-|

   1 + 2 + 3 + 4 +   1 + 2 + 3 + 4 +
G|-----------------|-----------------|
D|-----------------|-----------------|
A|-----------------|-----------0-2-3-|
E|-----------------|-----------------|

<<<<<<<<<<<<<<<<<<<<<<<<<<<<<<<<<<<<<<<

Part 1 x5 )
          > Whole thing x2
Part 2 x1 )
Comments