Misc Cartoons - Inuyasha - Change The World Chords & Tabs

 

Inuyasha - Change The World Chords & Tabs

Misc Cartoons Chords & Tabs

Version: 1 Type: Tab 0 ratings
1 star 2 stars 3 stars 4 stars 5 stars
comments

Inuyasha - Change The World Tab

CHANGE THE WORLD:

Intro:

e|---------------------------------------------------------------------------------------|
B|---------------------------------------------------------------------------------------|
G|----------9--12--11--11----12--11--11--9------11--9--9----11--12--11--9--9--11--9--------|
D|------12----------------------------------12---------------------------------------12--|
A|--12-----------------------------------------------------------------------------------|
E|---------------------------------------------------------------------------------------|

e|------------------------------------------------------------------------------|
B|------------------------------------------------------------------------------|
G|----------------9----------------11--12--11--9--------------------------------|
D|--9--9--11--12-----12--------12-----------------12--12----12--11--12--11--12--|
A|-------------------------12---------------------------------------------------|
E|------------------------------------------------------------------------------|


Verse/Estrofa:

e|-------------------------------------------------------------------|
B|-------------------------------------------------------------------|
G|-------------------------------------------------------------------|
D|--10--10--10--10--10--10--10--8--7--8--------7--8--8--8--7------7--|
A|-----------------------------------------10-----------------10-----|
E|-------------------------------------------------------------------|

e|----------------------------------|-----------------------|
B|----------------------------------|-----------------------|
G|--------------7------------9--10--|--7--10--10--9--9--10--|
D|--7----------------10--10---------|-----------------------|
A|-----10--8------------------------|-----------------------|
E|----------------------------------|-----------------------|


Pre-Chorus/Pre-Estribillo:

e|------------------------------------------------------------------------------|
B|---------------------------------------------------------8--------------------|
G|------------7--7--7--9--10--9----7-h-9--7-h-9---------------10--9--9--10--10--|
D|-----7--10-------------------------------------10----10-----------------------|
A|--8---------------------------------------------------------------------------|
E|------------------------------------------------------------------------------|
[ Tab from: http://www.guitartabs.cc/tabs/m/misc_cartoons/inuyasha_change_the_world_tab.html ]
e|--------------------------------------------------------------------------------|
B|--------------------------------------------------------------------------------|
G|--7--7--9--10--10--10--9--7--------------------------------7--7--7--7--6--7--9--|
D|-----------------------------10----10--10--10--8--7-----------------------------|
A|-----------------------------------------------------10-------------------------|
E|--------------------------------------------------------------------------------|


Chorus/Estribillo:

e|---------------------------------------------------------------------------------------|
B|---------------------------------------------------------------------------------------|
G|----------9--12--11--11----12--11--11--9------11--9--9----11--12--11--9--9--11--9--------|
D|------12----------------------------------12---------------------------------------12--|
A|--12-----------------------------------------------------------------------------------|
E|---------------------------------------------------------------------------------------|

e|--------------------------------------------------------------------|
B|--------------------------------------------------------------------|
G|----------------------------------12--11--9----------------------9--|
D|--9--9--11--12----------------12-------------12--12--12--11--12-----|
A|----------------12--12--12------------------------------------------|
E|--------------------------------------------------------------------|

e|------------------------------------------------------------------------------|
B|------------------------------------------------------------------------------|
G|--12--11--11----12--11--11--9------11--9--9----11--12--11--9--9--11--9----------|
D|-------------------------------12---------------------------------------12----|
A|------------------------------------------------------------------------------|
E|------------------------------------------------------------------------------|

e|------------------------------------------------------------------------------|
B|------------------------------------------------------------------------------|
G|----------------9----------------11--12--11--9--------------------------------|
D|--9--9--11--12-----12--------12-----------------12--12----12--11--12--11--12--|
A|-------------------------12---------------------------------------------------|
E|------------------------------------------------------------------------------|


Outro:

e|------------------------------------------|
B|------------------------------------------|
G|--11-h-12--11--9------9---------------11--|
D|------------------12-----9----------------|
A|----------------------------12----13------|
E|------------------------------------------|

Tabs by Fefe - Tron544

YOUTUBE: http://www.youtube.com/user/Tron544
FACEBOOK: http://www.facebook.com/Tron544
Comments