Misc Cartoons - Biene Maja Chords & Tabs

 

Biene Maja Chords & Tabs

Misc Cartoons Chords & Tabs

Version: 1 Type: Tab 0 ratings
1 star 2 stars 3 stars 4 stars 5 stars
comments

Biene Maja Tab

   
------------------------------------------------------
                             Biene Maja
------------------------------------------------------

Tabbed by: JW
E-mail: basis2000@emailn.de

Tuning: Standard

e-----------------------------------------------------|
B-------7----------------------7----------------------|
G-----6---9p6------------7p6-----9--------------------|
D---7---------7-9------7-----9------------------------|
A-7----------------7-9--------------------------------|
E-----------------------------------------------------|

e-----------------------------------------------------|
B-------7---------------------------------------------|
G-----6---9p6--------------7p6------------------------|
D---7---------7-9------7-------9---7------------------|
A-7----------------7-9-----------9--------------------|
E-----------------------------------------------------|

e-----------------------------------------------------|
B---7-9-g9/10-9-9-7-7---------7--9p7-7-------------10-|
G-9-------------------9-9--------------9-9-7-7--------|
D-------------------------7-9------------------9-7----|
A-----------------------------------------------------|
E-----------------------------------------------------|
[ Tab from: http://www.guitartabs.cc/tabs/m/misc_cartoons/biene_maja_tab.html ]
e-9------------------7--------------------------------|
B---10-10--------------9-9----------------------------|
G---------9-9-6-6gh7-------9-9-7-6--------------------|
D-----------------------------------------------------|
A-----------------------------------------------------|
E-----------------------------------------------------|

e-----------------------------------------------------|
B---7-9-g9/10-9-9-7-7---------7--9p7-7-------------10-|
G-9-------------------9-9--------------9-9-7-7--------|
D-------------------------7-9------------------9-7----|
A-----------------------------------------------------|
E-----------------------------------------------------|

e-9---------------------------------------------------|
B---10-10-------7-g7/10-10---(10)-----10---(10)-------|
G---------9-9-6------------9------(9)----9-----(9)----|
D-----------------------------------------------------|
A-----------------------------------------------------|
E-----------------------------------------------------|

e-9---------------------------------------------------|
B---10---9-------------10-----------------------------|
G------9---9-7----------------------------------------|
D--------------9-7-(7)--------------------------------|
A-----------------------------------------------------|
E-----------------------------------------------------|

*******************************************************

| /   slide up
| \   slide down
| h   hammer-on
| p   pull-off
| ~   vibrato
| +   harmonic
| x   Mute note
| b   Bend
| pb  Pre-bend
| br  Bend release
| pbr Pre-bend release
| brb Bend release bend
| g   Grace Note
| ()  unemphasized Note

*******************************************************
Comments