Misc Cartoons - Beck - Full Moon Sway Chords & Tabs

 

Beck - Full Moon Sway Chords & Tabs

Misc Cartoons Chords & Tabs

Version: 1 Type: Tab 0 ratings
1 star 2 stars 3 stars 4 stars 5 stars
comments

Beck - Full Moon Sway Tab

   
Full Moon sway
as performed by the Dying breed from the anime beck
about a band trying to make it in japan

FullMoonSway
tune 1/2 down (Eb,Ab,Db,Gb,Bb,Eb)
Verse
Full moon sway..
1/2_________1/2______________1_____________________1/2
|:_E_________E/b5___________Asus2____________________C#m

e----0---0-0--------0---0-0--------0------------0---0-0---------4---x-x-------|
B----0---0-0--------0---0-0--------0------------0---0-0---------5---x-x-------|
G--------1-1------3-----3-3--------------------2-----2-2----------------------|
D--2------------2------------------2------2-1-------------------6-------------|
A--------------------------------0------------------------------4-------------|
E-0------------(0)------------------------------------------------------------|
[ Tab from: http://www.guitartabs.cc/tabs/m/misc_cartoons/beck_full_moon_sway_tab.html ]
__1/2_______________1_________________________1
__B__________Asus2 (1st +2nd )________:|___(2nd leads to Chorus)
e-------------------0---0-0--------0---0-0---------0-0-0-0-0--------------------|
B-----4--x-x--------0---0-0--------0---0-0---------0-0-0-0-0--------------------|
G-----4--x-x-----------2-2-------------2-2---------2-2-2-2-2----mute------------|
D---4-------------2---------------2----------------2-2-2-2-2--------------------|
A-2-------------0---------------0------------------0-0-0-0-0--------------------|
E-------------------------------------------------------------------------------|

Chorus

What a fool ...
Only strumming
__1/2___1/2___1/2__1/2_________1___________1(1st+2nd)__1(2nd)
|:_C#m_Asus2__E____B_____C#m7/#5/11_______Asus2__:|__Asus2
e--4------0------0------2---------0--------------------0----------0-----|
B--5------0------0------4---------0--------------------0----------0-----|
G--6------2------1------4---------2--------------------2----------2-----|
D--6------2------2------4---------4--------------------2----------2-----|
A--4------0------2------2---------4--------------------0----------0-----|
E----------------0---------------(2)------------------------------------|
Comments