Misc Cartoons - Beavis And Butthead Theme Chords & Tabs

 

Beavis And Butthead Theme Chords & Tabs

Misc Cartoons Chords & Tabs

Version: 5 Type: Tab 0 ratings
1 star 2 stars 3 stars 4 stars 5 stars
comments

Beavis And Butthead Theme Tab

   
Gtr I (E A D G B E) - 'clean electric'
Gtr II (E A D G B E) - 'dirty electric'

Guitar Solo Gtr I
  Q=120 
4/4
  Q   E E +E  Q  E   +E  E q  q  Q    E E  q   E  E E E   E E E E E E +Q
|------------------|----------------|-------------------|-------------------|
|----10----------8-|-(8)------7--8--|-----10--10-10---8-|---8---7-----------|
|-------9-(9)------|-------7--7--9--|------9---9--9---9-|---7---7---7-(7)---|
|-7-----------7----|-----7----------|-7-7-----------7---|-------------------|
|------------------|----------------|-------------------|-------------------|
|------------------|----------------|-------------------|-------------------|


  H.      E E   +H.      E A E   E E +H     E E   +H.      Q    A H.      E E
|-------------|----------------|----------------|-------------|----------------|
|-------------|------------7h8-|---7-(7)----5---|-------------|----------------|
|-2---------5-|-(5)--------7h8-|---7-(7)----5---|-------------|----------------|
|-2---------5-|-(5)------------|--------------7-|-(7)---------|-5h7---------5--|
|-------------|----------------|----------------|-------------|----------------|
|-------------|----------------|----------------|-------------|----------------|


  +H.      E A E   +H     +E  E E E   +H     +E  E    +E  E   +Q   q  E E Q
|----------------|------------------|-----------------------|-----------------|
|----------------|------------------|-----------------------|-----------------|
|----------------|------------------|-----------------------|-----------------|
|-(5)--------0h2-|-(2)----(2)-------|-----------------------|------6--6-6-----|
|----------------|------------3h4-0-|-(0)----(0)------------|------7--7-7-----|
|----------------|------------------|------------3b4==(4)-0-|-(0)-------------|


  E A E E E +E  E q    A Q  +E  E E E E E
|-----5---------5----|--------------------|
|---------8-(8)------|------------5---7-5-|
|-7-7h8-7-7-(7)------|------------5---7-5-|
|-----------------7--|-5h7--(7)-7---7-----|
|--------------------|--------------------|
|--------------------|--------------------|

[ Tab from: http://www.guitartabs.cc/tabs/m/misc_cartoons/beavis_and_butthead_theme_tab_ver_5.html ]
  E E E E A    +E  E E E   +Q       Q.   E    +Q
|------------------------|--------------------------|
|-----5---7b8==(8)-5-7-5-|-(5)b5.5------------------|
|-----5---7b8==(8)-5-8-5-|-(5)b5.5-------7b8==(8)---|
|---7---7----------------|--------------------------|
|------------------------|--------------------------|
|------------------------|--------------------------|


  +E  E q  q  E E   q  Q  Q      E E
|-------5--5--5---|-5--8--8b8.5----8b8.5-|
|-----5---------5-|----7--7b7.5----7b7.5-|
|-(8)-------------|----------------------|
|-----------------|----------------------|
|-----------------|----------------------|
|-----------------|----------------------|


  +Q     E E E E E E   q  Q  Q      E E
|-(8.5)--5-----5-5---|-5--8--8b8.5----8b8.5-|
|-(7.5)----5h7-----7-|-5--7--7b7.5----7b7.5-|
|--------------------|----------------------|
|--------------------|----------------------|
|--------------------|----------------------|
|--------------------|----------------------|


  +Q     Q  A     E  E E E   E A E +Q   A q  E A E   Q  A Q  A E E E E
|-(8.5)--5--------5--5---5-|-----5-(5)----5------5-|------5----5-5-5---|
|-(7.5)--5--------5--5---5-|-----------------------|-------------------|
|-----------7b9==(9)---7-5-|---7h8-(8)--7h8----7h8-|----7h8--7h8-7-5---|
|--------------------------|-----------------------|-----------------7-|
|--------------------------|-----------------------|-------------------|
|--------------------------|-----------------------|-------------------|


  PM|                 PM
  E E E E E E E E   E E E E E E E E   Q  q  E E E E
|-----------------|-----------------|-------------------|
|-----5---5-5---5-|-----5---5-5-5-5-|----5--5-5---5b5.5-|
|-----7---7-7---7-|-----7---7-7-7-7-|----5--5-5---5b5.5-|
|-----6---6-6---6-|-----6---6-6-6-6-|-----------7-------|
|-----7---7-7---7-|-----7---7-7-7-7-|-------------------|
|-0-0-------------|---0-------------|-------------------|


 2/4         4/4
  +Q     Q    A    +E  E E E A    +E  E E E   +Q   Q  H
|-----------|------------5--------------5---|--------------||
|-(5.5)-----|----------5---5----------5---5-|-(5)----------||
|-(5.5)-----|-7b9==(9)-------7b9==(9)-----5-|-(5)----------||
|-----------|-------------------------------|--------------||
|-----------|-------------------------------|--------------||
|-----------|-------------------------------|--------------||


 Rhythm Riff  Gtr II
 4/4
  E E E E E E Q        E E E E E E Q
|--------------------|--------------------*|
|--------------------|--------------------*|
|---2---2------------|---2---2------------*|
|---2---2------------|---2---2------------*|
|-0------------------|-0---------0-3b3.5--*|
|-----------0-3b3.5--|--------------------*|
Comments