Misc Cartoons - Beavis And Butthead Theme Chords & Tabs

 

Beavis And Butthead Theme Chords & Tabs

Misc Cartoons Chords & Tabs

Version: 3 Type: Tab 0 ratings
1 star 2 stars 3 stars 4 stars 5 stars
comments

Beavis And Butthead Theme Tab

This is just the intro to the Beavis and Butthead theme...it's pretty easy.
[ Tab from: http://www.guitartabs.cc/tabs/m/misc_cartoons/beavis_and_butthead_theme_tab_ver_3.html ]
E---------------------------------------------------------------
B--------10----------8------------------------------------------
G-----------9------------7-7---9--------------------------------
D----7----------7-----------------------------------------------
A---------------------------------------------------------------
E---------------------------------------------------------------

E-----------------------
B-----------------------
G-----------------------
D---7-7-7---7-7-7-------
A---7-7-7---7-7-7-------
E---5-5-5---5-5-5-------
Comments