Misc Cartoons - Beavis And Butthead Theme Chords & Tabs

 

Beavis And Butthead Theme Chords & Tabs

Misc Cartoons Chords & Tabs

Version: 1 Type: Bass Tab 0 ratings
1 star 2 stars 3 stars 4 stars 5 stars
comments

Beavis And Butthead Theme Bass Tab

If u live in vancouver like me, u rock!
Song: Beavis & Butt-head theme
Tabbed by: Nick car_dude@hotmail.com and my guitar teacher.
[ Tab from: http://www.guitartabs.cc/tabs/m/misc_cartoons/beavis_and_butthead_theme_btab.html ]
Here is the beavis and butt head btab.
its not perfect, but give me a break, im 11.
[-----------------------------------------------------------]
[-----7-------5----------------7-7----5-5-4-----------------]
[-------7----------5-5-7----------------------3-------------]
[--5------5-----5---------5-5------5--------5---5-5-5--5-5-5]

I dont know if the end is right.  Oh yeah,  some parts are missing to.

Here is a easyer way to play it.
it kinda sux.

[-------------------------------------]
[---7------5--------------------------]
[-----7---------5-7-------------------]
[-5------5---5----------5-5-5--5-5-5--]

at the end, on the last 5s, fade.


                                                  nick
Comments