Misc Cartoons - Aladdin - A Whole New World Chords & Tabs

 

Aladdin - A Whole New World Chords & Tabs

Misc Cartoons Chords & Tabs

Version: 2 Type: Tab 0 ratings
1 star 2 stars 3 stars 4 stars 5 stars
comments

Aladdin - A Whole New World Tab

   
This is "A Whole New World" on the cartoon "Aladdin" Enjoy!

E|10-8-11-10-6----10-8-11-10-6-10--11p10p8-|
B|------------6----------------------------|
G|-----------------------------------------|
D|-----------------------------------------|
A|-----------------------------------------|
E|-----------------------------------------|

E|8-7-10-8-5-8-6-5-6--3-6-8-6-3-1-|
B|--------------------------------|
G|--------------------------------|
D|--------------------------------|
A|--------------------------------|
E|--------------------------------|

E|10-8-11-10-6----10-8-11-10-6-10--11p10p8-|
B|------------6----------------------------|
G|-----------------------------------------|
D|-----------------------------------------|
A|-----------------------------------------|
E|-----------------------------------------|

E|8-7-10-8-5-8-6-5-6--3-6-8-6-6-10p8h10-|
B|--------------------------------------|
G|--------------------------------------|
D|--------------------------------------|
A|--------------------------------------|
E|--------------------------------------|


E|8-11-15-13-15-13-|
B|-----------------|
G|-----------------|
D|-----------------|
A|-----------------|
E|-----------------|
[ Tab from: http://www.guitartabs.cc/tabs/m/misc_cartoons/aladdin_a_whole_new_world_tab_ver_2.html ]
E|8-11-15-13-8-11-10-10-|
B|----------------------|
G|----------------------|
D|----------------------|
A|----------------------|
E|----------------------|

E|-10-11-13-17-15-13---17-18-13-|
B|-------------------10---------|
G|------------------------------|
D|------------------------------|
A|------------------------------|
E|------------------------------|

E|----10-8---------10-|
B|-11------11-8-11----|
G|--------------------|
D|--------------------|
A|--------------------|
E|--------------------|


E|8-11-15-13-|
B|-----------|
G|-----------|
D|-----------|
A|-----------|
E|-----------|

E|8-11-15-13-8-11-10-10-|
B|----------------------|
G|----------------------|
D|----------------------|
A|----------------------|
E|----------------------|

E|-10-11-13-17-15-13---17-18-13-|
B|-------------------10---------|
G|------------------------------|
D|------------------------------|
A|------------------------------|
E|------------------------------|

E|-10-8-8-10-11-10-8-8---|
B|--------------------11-|
G|-----------------------|
D|-----------------------|
A|-----------------------|
E|-----------------------|

And Repeat. Enjoy!

Tabbed by: Kyle Tremblay + Willard Kirby
Comments