Misc Cartoons - Aladdin - A Whole New World Chords & Tabs

 

Aladdin - A Whole New World Chords & Tabs

Misc Cartoons Chords & Tabs

Version: 1 Type: Tab 0 ratings
1 star 2 stars 3 stars 4 stars 5 stars
comments

Aladdin - A Whole New World Tab

-A Whole New World- 
Hey guys, heres the tab, my first one and I think it's right on (almost lol).Well, I
also have the chords so email me or w/e if u want em. Maybe Ill post em l8er. Enjoy (I hope)! ;)

e|----------------------------------------------0----------------0-------------|
B|-0-1-0----0-1-0--0-------0-----------0-----0-1-30-0-0------0-1-3-1-0-0------|
G|--2---0----2---0--2---2-1-2-1-2-0-0-1-2-4-------------2-0--------2-----------|
D|-------0-------------------------3-2---------------------0-------------------|
A|-----------------------------------------------------------------------------|
E|-----------------------------------------------------------------------------|


e|------2-0----2-3-----------------0----------------0--------------------------|
B|-0-1-3---3------3---0---------0-1-3-0-0-0------0-1-3-0-0-0-------------------|
G|----------0-0----0-0-2-0-0-2-------------2-0--------------2-0-2-0------------|
D|------------------------2-------------------0--------------------------------|
A|-----------------------------------------------------------------------------|
E|-----------------------------------------------------------------------------|

[ Tab from: http://www.guitartabs.cc/tabs/m/misc_cartoons/aladdin_a_whole_new_world_tab.html ]
e|------2-0----2-3-----------------------0-5-3---0-1-0---0-1-0-0---------------|
B|-0-1-3---3------3---0-----1-0-------1-0-3-------3---1---3---1-3--------------|
G|----------0-0----0-0-2-0-0---2-0-0-2-----------------0-----------------------|
D|------------------------2----------------------------------------------------|
A|-----------------------------------------------------------------------------|
E|-----------------------------------------------------------------------------|


e|----0---------------------0-1-5-3-0-0-0------0-1-5-3-0-0-0-------------------|
B|-3-2-3-1-3-1-0-1-0-3-1-5---------------3-1----------------3-1-3-1------------|
G|----------------2-------------------------0----------------------------------|
D|-----------------------------------------------------------------------------|
A|-----------------------------------------------------------------------------|
E|-----------------------------------------------------------------------------|


e|-0-1-3-7-5-3---7-8-3---0------0---------|
B|------------------------3------3-1------|
G|------------5-5-----5-5--5-2-5----2-5---|
D|----------------------------------------|
A|----------------------------------------|
E|----------------------------------------|

Cio
Comments