Misc Blues - Take It Easy Blues Chords & Tabs

 

Take It Easy Blues Chords & Tabs

Misc Blues Chords & Tabs

Version: 1 Type: Tab 0 ratings
1 star 2 stars 3 stars 4 stars 5 stars
comments

Take It Easy Blues Tab

tabbed by: mick405

if you have any corrections or questions email me at coolmick46@hotmail.com


 tuning: standard




   /: slide up 
   p: pull off
   h: hammer on 
    ~: vibrato


   played relativley fast.



E--------0-------0-------0------------------2-----------0-------0-------------------|
B-------------------------------------------0--------3----0--3-----0----------------|
G--2/4-----4--3----3--2-----2---1-----------2--------0---------------2-0------------|
D-------------------------------------------------------------------------2p0h2-----|
A----------------------------------0-1-2--------------------------------------------|
E-------------------------------------------------0-------------------------------0-|


E--------0-------0----------------------------5-5-5-7-5-----5------0-0-0-3-0-----0--|
B-----3----0--3-----0-------------------------5-5-5-5-5-----5------0-0-0-0-0-----0--|
G-----0----------------2-0--------------------5-5-5-5-5-----5------0-0-0-0-0-----0--|
D---------------------------2p0h2---------------------------------------------------|
A------------------------------------------0-------------0--------------------------|
E--0-------------------------------0----------------------------0--------------0----|

[ Tab from: http://www.guitartabs.cc/tabs/m/misc_blues/take_it_easy_blues_tab.html ]
E-----0-0-0-3-0--------0-0-0-2-2-2-2----------0-------0-----------------------------|
B-----1-1-1-1-1--------0-0-0-0-0-0-0-------3----0--3-----0--------------------------|
G-----0-0-0-0-0--------2-2-2-2-2-2-2-------0----------------2-0---------------------|
D---------------------------------------------------------------2p0h2---------------|
A--0------------0-1-2---------------------------------------------------------------|
E---------------------------------------0-------------------------------0-----------|


E--------0--------0-------------------------5-5-5-7-5-----5-------0-0-0-3-0----0----|
B-----3-----0--3-----0----------------------5-5-5-5-5-----5-------0-0-0-0-0----0----|
G-----0----------------2-0------------------5-5-5-5-5-----5-------0-0-0-0-0----0----|
D--------------------------2p0h2----------------------------------------------------|
A----------------------------------------0-------------0----------------------------|
E--0--------------------------------0--------------------------0-------------0------|


E----0-0-0-3-0---------0-0-0-2-2-2-2--------------0-------0--------0-------------2--|
B----1-1-1-1-1---------0-0-0-0-0-0-0---------------------------------------------0--|
G----0-0-0-0-0---------2-2-2-2-2-2-2---------2/4----4--3-----3--2-----2--1-------2--|
D-----------------------------------------------------------------------------------|
A--0------------0-1-2------------------------------------------------------0-1-2----|
E-----------------------------------------0-----------------------------------------|


E----------0-------0--------0-------------------------------------------------------|
B------------------------------------------------3~ --------------------------------|
G-----2/4----4--3-----3--2-----2--1--------------1~ --------------------------------|
D-----------------------------------------------------------------------------------|
A------------------------------------0----------------------------------------------|
E--0-------------------------------------3--0---------------------------------------|

 there you go.
Comments