Misc Blues - Cool Blues Riff Chords & Tabs

 

Cool Blues Riff Chords & Tabs

Misc Blues Chords & Tabs

Version: 1 Type: Tab 2 ratings
1 star 2 stars 3 stars 4 stars 5 stars
comments

Cool Blues Riff Tab

tabbed by: Cheese_monkey391
This is just a simple blies riff i made up while mucking round 

e|---------------------------------|
B|---------------------------------|
G|---------------------------------|   x2
D|--2-2-2-2-4-2-2---2--------------|
A|--0-0-3-0-0-0-3/4----------------|
[ Tab from: http://www.guitartabs.cc/tabs/m/misc_blues/cool_blues_riff_tab.html ]
e|---------------------------------|
B|---------------------------------|
G|--2-2-2-2-4-2-2---2--------------|   x2
D|--0-0-3-0-0-0-3/4----------------|
A|---------------------------------|

then play
e|---------------------------------|
B|---------------------------------|
G|--7-8-9--------------------------|   
D|--5-6-7--------------------------|
A|---------------------------------|

enjoy!

any suggestions or corrections, email me at mad.as.a.spoon.391@hotmail.com
Comments