Misc Artists - Venus Chords & Tabs

 

Venus Chords & Tabs

Misc Artists Chords & Tabs

Version: 1 Type: Tab 0 ratings
1 star 2 stars 3 stars 4 stars 5 stars
comments

Venus Tab

   
Song: Venus
Band: Dave Herrick

Tuned down half a step
[ Tab from: http://www.guitartabs.cc/tabs/m/misc_artists/venus_tab.html ]
E--0--0----------------------------
A--3--3--2--2--4--4----------------
D--2--2--2--2--4--4----------------
G--------2--2--2--2--5--5--5--5--5-
B-----------------------5--5--5--5-
E-----------------------3--3--3--3-

(PALM MUTED)
E---------------------------------
A---------------------------------
D-4-4-4-4-2-2-2-2-5-5-5-5---------
G-4-4-4-4-2-2-2-2-5-5-5-5-3-3-3-3-
B-2-2-2-2-0-0-0-0-3-3-3-3-3-3-3-3-
E-------------------------1-1-1-1-
Comments